  0
SECTION
  2
HEADER
  9
$ACADVER
  1
AC1027
  9
$ACADMAINTVER
 70
     8
  9
$DWGCODEPAGE
  3
ANSI_1252
  9
$REQUIREDVERSIONS
160
                 0
  9
$LASTSAVEDBY
  1
maika.huard
  9
$INSBASE
 10
0.0
 20
0.0
 30
0.0
  9
$EXTMIN
 10
0.0
 20
0.0
 30
0.0
  9
$EXTMAX
 10
279.4
 20
215.9
 30
0.0
  9
$LIMMIN
 10
0.0
 20
0.0
  9
$LIMMAX
 10
279.4
 20
215.9
  9
$ORTHOMODE
 70
     0
  9
$REGENMODE
 70
     1
  9
$FILLMODE
 70
     1
  9
$QTEXTMODE
 70
     0
  9
$MIRRTEXT
 70
     1
  9
$LTSCALE
 40
1.0
  9
$ATTMODE
 70
     1
  9
$TEXTSIZE
 40
3.175
  9
$TRACEWID
 40
1.0
  9
$TEXTSTYLE
  7
Standard
  9
$CLAYER
  8
0
  9
$CELTYPE
  6
ByLayer
  9
$CECOLOR
 62
   256
  9
$CELTSCALE
 40
1.0
  9
$DISPSILH
 70
     0
  9
$DIMSCALE
 40
1.0
  9
$DIMASZ
 40
3.302
  9
$DIMEXO
 40
1.27
  9
$DIMDLI
 40
3.75
  9
$DIMRND
 40
0.0
  9
$DIMDLE
 40
0.0
  9
$DIMEXE
 40
1.0
  9
$DIMTP
 40
0.0
  9
$DIMTM
 40
0.0
  9
$DIMTXT
 40
3.175
  9
$DIMCEN
 40
2.5
  9
$DIMTSZ
 40
0.0
  9
$DIMTOL
 70
     0
  9
$DIMLIM
 70
     0
  9
$DIMTIH
 70
     1
  9
$DIMTOH
 70
     1
  9
$DIMSE1
 70
     0
  9
$DIMSE2
 70
     0
  9
$DIMTAD
 70
     0
  9
$DIMZIN
 70
     0
  9
$DIMBLK
  1

  9
$DIMASO
 70
     1
  9
$DIMSHO
 70
     1
  9
$DIMPOST
  1

  9
$DIMAPOST
  1

  9
$DIMALT
 70
     0
  9
$DIMALTD
 70
     3
  9
$DIMALTF
 40
0.03937
  9
$DIMLFAC
 40
24.0
  9
$DIMTOFL
 70
     1
  9
$DIMTVP
 40
0.0
  9
$DIMTIX
 70
     0
  9
$DIMSOXD
 70
     0
  9
$DIMSAH
 70
     0
  9
$DIMBLK1
  1

  9
$DIMBLK2
  1

  9
$DIMSTYLE
  2
ISO-25
  9
$DIMCLRD
 70
     0
  9
$DIMCLRE
 70
     0
  9
$DIMCLRT
 70
     0
  9
$DIMTFAC
 40
1.0
  9
$DIMGAP
 40
1.524
  9
$DIMJUST
 70
     0
  9
$DIMSD1
 70
     0
  9
$DIMSD2
 70
     0
  9
$DIMTOLJ
 70
     0
  9
$DIMTZIN
 70
     0
  9
$DIMALTZ
 70
     0
  9
$DIMALTTZ
 70
     0
  9
$DIMUPT
 70
     0
  9
$DIMDEC
 70
     0
  9
$DIMTDEC
 70
     0
  9
$DIMALTU
 70
     2
  9
$DIMALTTD
 70
     3
  9
$DIMTXSTY
  7
Standard
  9
$DIMAUNIT
 70
     0
  9
$DIMADEC
 70
     1
  9
$DIMALTRND
 40
0.0
  9
$DIMAZIN
 70
     0
  9
$DIMDSEP
 70
    44
  9
$DIMATFIT
 70
     3
  9
$DIMFRAC
 70
     0
  9
$DIMLDRBLK
  1

  9
$DIMLUNIT
 70
     2
  9
$DIMLWD
 70
    -2
  9
$DIMLWE
 70
    -2
  9
$DIMTMOVE
 70
     0
  9
$DIMFXL
 40
1.0
  9
$DIMFXLON
 70
     0
  9
$DIMJOGANG
 40
0.785398
  9
$DIMTFILL
 70
     0
  9
$DIMTFILLCLR
 70
     0
  9
$DIMARCSYM
 70
     0
  9
$DIMLTYPE
  6

  9
$DIMLTEX1
  6

  9
$DIMLTEX2
  6

  9
$DIMTXTDIRECTION
 70
     0
  9
$LUNITS
 70
     2
  9
$LUPREC
 70
     0
  9
$SKETCHINC
 40
1.0
  9
$FILLETRAD
 40
0.0
  9
$AUNITS
 70
     0
  9
$AUPREC
 70
     1
  9
$MENU
  1
.
  9
$ELEVATION
 40
0.0
  9
$PELEVATION
 40
0.0
  9
$THICKNESS
 40
0.0
  9
$LIMCHECK
 70
     0
  9
$CHAMFERA
 40
0.0
  9
$CHAMFERB
 40
0.0
  9
$CHAMFERC
 40
0.0
  9
$CHAMFERD
 40
0.0
  9
$SKPOLY
 70
     0
  9
$TDCREATE
 40
2460516.426340116
  9
$TDUCREATE
 40
2460516.593006782
  9
$TDUPDATE
 40
2460521.37459522
  9
$TDUUPDATE
 40
2460521.541261887
  9
$TDINDWG
 40
0.0000000116
  9
$TDUSRTIMER
 40
0.0000000116
  9
$USRTIMER
 70
     1
  9
$ANGBASE
 50
0.0
  9
$ANGDIR
 70
     0
  9
$PDMODE
 70
     0
  9
$PDSIZE
 40
-1.0
  9
$PLINEWID
 40
0.0
  9
$SPLFRAME
 70
     0
  9
$SPLINETYPE
 70
     6
  9
$SPLINESEGS
 70
     8
  9
$HANDSEED
  5
1C5
  9
$SURFTAB1
 70
     6
  9
$SURFTAB2
 70
     6
  9
$SURFTYPE
 70
     6
  9
$SURFU
 70
     6
  9
$SURFV
 70
     6
  9
$UCSBASE
  2

  9
$UCSNAME
  2

  9
$UCSORG
 10
0.0
 20
0.0
 30
0.0
  9
$UCSXDIR
 10
1.0
 20
0.0
 30
0.0
  9
$UCSYDIR
 10
0.0
 20
1.0
 30
0.0
  9
$UCSORTHOREF
  2

  9
$UCSORTHOVIEW
 70
     0
  9
$UCSORGTOP
 10
0.0
 20
0.0
 30
0.0
  9
$UCSORGBOTTOM
 10
0.0
 20
0.0
 30
0.0
  9
$UCSORGLEFT
 10
0.0
 20
0.0
 30
0.0
  9
$UCSORGRIGHT
 10
0.0
 20
0.0
 30
0.0
  9
$UCSORGFRONT
 10
0.0
 20
0.0
 30
0.0
  9
$UCSORGBACK
 10
0.0
 20
0.0
 30
0.0
  9
$PUCSBASE
  2

  9
$PUCSNAME
  2

  9
$PUCSORG
 10
0.0
 20
0.0
 30
0.0
  9
$PUCSXDIR
 10
1.0
 20
0.0
 30
0.0
  9
$PUCSYDIR
 10
0.0
 20
1.0
 30
0.0
  9
$PUCSORTHOREF
  2

  9
$PUCSORTHOVIEW
 70
     0
  9
$PUCSORGTOP
 10
0.0
 20
0.0
 30
0.0
  9
$PUCSORGBOTTOM
 10
0.0
 20
0.0
 30
0.0
  9
$PUCSORGLEFT
 10
0.0
 20
0.0
 30
0.0
  9
$PUCSORGRIGHT
 10
0.0
 20
0.0
 30
0.0
  9
$PUCSORGFRONT
 10
0.0
 20
0.0
 30
0.0
  9
$PUCSORGBACK
 10
0.0
 20
0.0
 30
0.0
  9
$USERI1
 70
     0
  9
$USERI2
 70
     0
  9
$USERI3
 70
     0
  9
$USERI4
 70
     0
  9
$USERI5
 70
     0
  9
$USERR1
 40
0.0
  9
$USERR2
 40
0.0
  9
$USERR3
 40
0.0
  9
$USERR4
 40
0.0
  9
$USERR5
 40
0.0
  9
$WORLDVIEW
 70
     1
  9
$SHADEDGE
 70
     3
  9
$SHADEDIF
 70
    70
  9
$TILEMODE
 70
     1
  9
$MAXACTVP
 70
    64
  9
$PINSBASE
 10
0.0
 20
0.0
 30
0.0
  9
$PLIMCHECK
 70
     0
  9
$PEXTMIN
 10
1.000000E+20
 20
1.000000E+20
 30
1.000000E+20
  9
$PEXTMAX
 10
-1.000000E+20
 20
-1.000000E+20
 30
-1.000000E+20
  9
$PLIMMIN
 10
0.0
 20
0.0
  9
$PLIMMAX
 10
420.0
 20
297.0
  9
$UNITMODE
 70
     0
  9
$VISRETAIN
 70
     1
  9
$PLINEGEN
 70
     0
  9
$PSLTSCALE
 70
     0
  9
$TREEDEPTH
 70
  3020
  9
$CMLSTYLE
  2
Standard
  9
$CMLJUST
 70
     0
  9
$CMLSCALE
 40
20.0
  9
$PROXYGRAPHICS
 70
     1
  9
$MEASUREMENT
 70
     1
  9
$CELWEIGHT
370
    -1
  9
$ENDCAPS
280
     0
  9
$JOINSTYLE
280
     0
  9
$LWDISPLAY
290
     1
  9
$INSUNITS
 70
     4
  9
$HYPERLINKBASE
  1

  9
$STYLESHEET
  1

  9
$XEDIT
290
     1
  9
$CEPSNTYPE
380
     0
  9
$PSTYLEMODE
290
     1
  9
$FINGERPRINTGUID
  2
{566f6785-13e6-47dd-87e9-725c248ba378}
  9
$VERSIONGUID
  2
{FAEB1C32-E019-11D5-929B-00C0DF256EC4}
  9
$EXTNAMES
290
     1
  9
$PSVPSCALE
 40
0.0
  9
$OLESTARTUP
290
     0
  9
$SORTENTS
280
   127
  9
$INDEXCTL
280
     0
  9
$HIDETEXT
280
     1
  9
$XCLIPFRAME
280
     2
  9
$HALOGAP
280
     0
  9
$OBSCOLOR
 70
   257
  9
$OBSLTYPE
280
     0
  9
$INTERSECTIONDISPLAY
280
     0
  9
$INTERSECTIONCOLOR
 70
   257
  9
$DIMASSOC
280
     2
  9
$PROJECTNAME
  1

  9
$CAMERADISPLAY
290
     0
  9
$LENSLENGTH
 40
50.0
  9
$CAMERAHEIGHT
 40
0.0
  9
$STEPSPERSEC
 40
2.0
  9
$STEPSIZE
 40
6.0
  9
$3DDWFPREC
 40
2.0
  9
$PSOLWIDTH
 40
0.25
  9
$PSOLHEIGHT
 40
4.0
  9
$LOFTANG1
 40
1.570796
  9
$LOFTANG2
 40
1.570796
  9
$LOFTMAG1
 40
0.0
  9
$LOFTMAG2
 40
0.0
  9
$LOFTPARAM
 70
     7
  9
$LOFTNORMALS
280
     1
  9
$LATITUDE
 40
37.795
  9
$LONGITUDE
 40
-122.394
  9
$NORTHDIRECTION
 40
0.0
  9
$TIMEZONE
 70
 -8000
  9
$LIGHTGLYPHDISPLAY
280
     1
  9
$TILEMODELIGHTSYNCH
280
     1
  9
$SOLIDHIST
280
     1
  9
$SHOWHIST
280
     1
  9
$DWFFRAME
280
     2
  9
$DGNFRAME
280
     2
  9
$REALWORLDSCALE
290
     1
  9
$INTERFERECOLOR
 62
   256
  9
$CSHADOW
280
     0
  9
$SHADOWPLANELOCATION
 40
0.0
  0
ENDSEC
  0
SECTION
  2
CLASSES
  0
CLASS
  1
ACDBDICTIONARYWDFLT
  2
AcDbDictionaryWithDefault
  3
ObjectDBX Classes
 90
        0
 91
        6
280
     0
281
     0
  0
CLASS
  1
VISUALSTYLE
  2
AcDbVisualStyle
  3
ObjectDBX Classes
 90
     4095
 91
        5
280
     0
281
     0
  0
CLASS
  1
MATERIAL
  2
AcDbMaterial
  3
ObjectDBX Classes
 90
     1153
 91
        5
280
     0
281
     0
  0
CLASS
  1
SCALE
  2
AcDbScale
  3
ObjectDBX Classes
 90
     1153
 91
        5
280
     0
281
     0
  0
CLASS
  1
TABLESTYLE
  2
AcDbTableStyle
  3
ObjectDBX Classes
 90
     4095
 91
        5
280
     0
281
     0
  0
CLASS
  1
MLEADERSTYLE
  2
AcDbMLeaderStyle
  3
ACDB_MLEADERSTYLE_CLASS
 90
     4095
 91
        4
280
     0
281
     0
  0
CLASS
  1
SUN
  2
AcDbSun
  3
SCENEOE
 90
     1153
 91
        5
280
     0
281
     0
  0
CLASS
  1
ACDBPLACEHOLDER
  2
AcDbPlaceHolder
  3
ObjectDBX Classes
 90
        0
 91
        1
280
     0
281
     0
  0
CLASS
  1
LAYOUT
  2
AcDbLayout
  3
ObjectDBX Classes
 90
        0
 91
        1
280
     0
281
     0
  0
CLASS
  1
CSACDOCUMENTOPTIONS
  2
CDocDataContainer
  3
"DERU003_CSAPP"
 90
     4095
 91
        4
280
     0
281
     0
  0
CLASS
  1
CELLSTYLEMAP
  2
AcDbCellStyleMap
  3
ObjectDBX Classes
 90
     1152
 91
        4
280
     0
281
     0
  0
CLASS
  1
DICTIONARYVAR
  2
AcDbDictionaryVar
  3
ObjectDBX Classes
 90
        0
 91
        4
280
     0
281
     0
  0
ENDSEC
  0
SECTION
  2
TABLES
  0
TABLE
  2
VPORT
  5
8
330
0
100
AcDbSymbolTable
 70
     1
  0
VPORT
  5
29
330
8
100
AcDbSymbolTableRecord
100
AcDbViewportTableRecord
  2
*Active
 70
     0
 10
0.0
 20
0.0
 11
1.0
 21
1.0
 12
143.307466
 22
139.777898
 13
0.0
 23
0.0
 14
10.0
 24
10.0
 15
10.0
 25
10.0
 16
0.0
 26
0.0
 36
1.0
 17
0.0
 27
0.0
 37
0.0
 40
323.85
 41
2.019036
 42
50.0
 43
0.0
 44
0.0
 50
0.0
 51
0.0
 71
    16
 72
  2000
 73
     1
 74
     3
 75
     0
 76
     0
 77
     0
 78
     0
281
     0
 65
     1
110
0.0
120
0.0
130
0.0
111
1.0
121
0.0
131
0.0
112
0.0
122
1.0
132
0.0
 79
     0
146
0.0
 60
     3
 61
     5
292
     1
282
     1
141
0.0
142
0.0
 63
   256
361
1B3
  0
ENDTAB
  0
TABLE
  2
LTYPE
  5
5
330
0
100
AcDbSymbolTable
 70
     6
  0
LTYPE
  5
14
330
5
100
AcDbSymbolTableRecord
100
AcDbLinetypeTableRecord
  2
ByBlock
 70
     0
  3

 72
    65
 73
     0
 40
0.0
  0
LTYPE
  5
15
330
5
100
AcDbSymbolTableRecord
100
AcDbLinetypeTableRecord
  2
ByLayer
 70
     0
  3

 72
    65
 73
     0
 40
0.0
  0
LTYPE
  5
16
330
5
100
AcDbSymbolTableRecord
100
AcDbLinetypeTableRecord
  2
Continuous
 70
     0
  3
Solid line
 72
    65
 73
     0
 40
0.0
  0
LTYPE
  5
5E
330
5
100
AcDbSymbolTableRecord
100
AcDbLinetypeTableRecord
  2
HIDDEN
 70
     0
  3
Hidden __ __ __ __ __ __ __ __ __ __ __ __ __ __
 72
    65
 73
     2
 40
1.905
 49
1.27
 74
     0
 49
-0.635
 74
     0
  0
LTYPE
  5
5F
330
5
100
AcDbSymbolTableRecord
100
AcDbLinetypeTableRecord
  2
PHANTOM
 70
     0
  3
Phantom ______  __  __  ______  __  __  ______
 72
    65
 73
     6
 40
12.7
 49
6.35
 74
     0
 49
-1.27
 74
     0
 49
1.27
 74
     0
 49
-1.27
 74
     0
 49
1.27
 74
     0
 49
-1.27
 74
     0
  0
LTYPE
  5
60
330
5
100
AcDbSymbolTableRecord
100
AcDbLinetypeTableRecord
  2
CENTER
 70
     0
  3
Center ____ _ ____ _ ____ _ ____ _ ____ _ ____
 72
    65
 73
     4
 40
10.16
 49
6.35
 74
     0
 49
-1.27
 74
     0
 49
1.27
 74
     0
 49
-1.27
 74
     0
  0
LTYPE
  5
61
330
5
100
AcDbSymbolTableRecord
100
AcDbLinetypeTableRecord
  2
CENTERX2
 70
     0
  3
Center (2x) ________  __  ________  __  _____
 72
    65
 73
     4
 40
20.32
 49
12.7
 74
     0
 49
-2.54
 74
     0
 49
2.54
 74
     0
 49
-2.54
 74
     0
  0
LTYPE
  5
62
330
5
100
AcDbSymbolTableRecord
100
AcDbLinetypeTableRecord
  2
DOT2
 70
     0
  3
Dot (.5x) ........................................
 72
    65
 73
     2
 40
0.635
 49
0.0
 74
     0
 49
-0.635
 74
     0
  0
ENDTAB
  0
TABLE
  2
LAYER
  5
2
330
0
100
AcDbSymbolTable
 70
     2
  0
LAYER
  5
10
330
2
100
AcDbSymbolTableRecord
100
AcDbLayerTableRecord
  2
0
 70
     0
 62
     7
  6
Continuous
370
    -3
390
F
347
1AD
348
0
  0
LAYER
  5
63
330
2
100
AcDbSymbolTableRecord
100
AcDbLayerTableRecord
  2
FORMAT
 70
     0
 62
     7
  6
Continuous
370
    -3
390
F
347
1AD
348
0
  0
ENDTAB
  0
TABLE
  2
STYLE
  5
3
330
0
100
AcDbSymbolTable
 70
     4
  0
STYLE
  5
11
330
3
100
AcDbSymbolTableRecord
100
AcDbTextStyleTableRecord
  2
Standard
 70
     0
 40
0.0
 41
1.0
 50
0.0
 71
     0
 42
3.175
  3
txt
  4

  0
STYLE
  5
87
330
3
100
AcDbSymbolTableRecord
100
AcDbTextStyleTableRecord
  2
SLDTEXTSTYLE0
 70
     0
 40
0.0
 41
0.605
 50
0.0
 71
     0
 42
3.175
  3
TXT
  4

  0
STYLE
  5
99
330
3
100
AcDbSymbolTableRecord
100
AcDbTextStyleTableRecord
  2
SLDTEXTSTYLE1
 70
     0
 40
0.0
 41
0.75
 50
0.0
 71
     0
 42
3.175
  3
TXT
  4

  0
STYLE
  5
A7
330
3
100
AcDbSymbolTableRecord
100
AcDbTextStyleTableRecord
  2
SLDTEXTSTYLE2
 70
     0
 40
0.0
 41
0.696429
 50
0.0
 71
     0
 42
3.175
  3
TXT
  4

  0
ENDTAB
  0
TABLE
  2
VIEW
  5
6
330
0
100
AcDbSymbolTable
 70
     0
  0
ENDTAB
  0
TABLE
  2
UCS
  5
7
330
0
100
AcDbSymbolTable
 70
     0
  0
ENDTAB
  0
TABLE
  2
APPID
  5
9
330
0
100
AcDbSymbolTable
 70
     6
  0
APPID
  5
12
330
9
100
AcDbSymbolTableRecord
100
AcDbRegAppTableRecord
  2
ACAD
 70
     0
  0
APPID
  5
1AE
330
9
100
AcDbSymbolTableRecord
100
AcDbRegAppTableRecord
  2
MCS_DIM1
 70
     0
  0
APPID
  5
1AF
330
9
100
AcDbSymbolTableRecord
100
AcDbRegAppTableRecord
  2
McsXdata5
 70
     0
  0
APPID
  5
1B2
330
9
100
AcDbSymbolTableRecord
100
AcDbRegAppTableRecord
  2
MCS_DOCUMENT_ID
 70
     0
  0
APPID
  5
1BA
330
9
100
AcDbSymbolTableRecord
100
AcDbRegAppTableRecord
  2
MCS_PARAMS_DATA
 70
     0
  0
APPID
  5
1BC
330
9
100
AcDbSymbolTableRecord
100
AcDbRegAppTableRecord
  2
MC_VERSION_DATA
 70
     0
  0
ENDTAB
  0
TABLE
  2
DIMSTYLE
  5
A
330
0
100
AcDbSymbolTable
 70
     4
100
AcDbDimStyleTable
  0
DIMSTYLE
105
27
330
A
100
AcDbSymbolTableRecord
100
AcDbDimStyleTableRecord
  2
ISO-25
 70
     0
 41
2.5
 42
0.625
 43
3.75
 44
1.25
 73
     0
 74
     0
 77
     1
 78
     8
140
2.5
141
2.5
143
0.03937
147
0.625
171
     3
172
     1
178
     0
271
     2
272
     2
274
     3
278
    44
283
     0
284
     8
340
11
  0
DIMSTYLE
105
E5
330
A
100
AcDbSymbolTableRecord
100
AcDbDimStyleTableRecord
  2
SLDDIMSTYLE0
 70
     0
 41
3.302
 44
0.0
 45
0.0
 78
    12
 79
     3
140
2.311487
143
0.03937
144
8.0
147
0.577872
148
0.0
170
     1
171
     3
172
     1
173
     1
178
     0
271
     0
272
     0
274
     3
276
     2
284
    12
289
     0
340
87
  0
DIMSTYLE
105
F3
330
A
100
AcDbSymbolTableRecord
100
AcDbDimStyleTableRecord
  2
SLDDIMSTYLE1
 70
     0
 41
3.302
 44
0.0
 45
0.0
 78
    12
 79
     3
140
2.311487
143
0.03937
144
8.0
147
0.577872
148
0.0
170
     1
171
     3
173
     1
178
     0
271
     0
272
     0
274
     3
276
     2
284
    12
340
87
  0
DIMSTYLE
105
118
330
A
100
AcDbSymbolTableRecord
100
AcDbDimStyleTableRecord
  2
SLDDIMSTYLE2
 70
     0
 41
3.302
 44
0.0
 45
0.0
146
3.302
147
0.0
173
     1
178
     0
271
     0
272
     0
276
     2
340
11
  0
ENDTAB
  0
TABLE
  2
BLOCK_RECORD
  5
1
330
0
100
AcDbSymbolTable
 70
     5
  0
BLOCK_RECORD
  5
1F
330
1
100
AcDbSymbolTableRecord
100
AcDbBlockTableRecord
  2
*Model_Space
340
22
 70
     0
280
     1
281
     0
  0
BLOCK_RECORD
  5
1B
330
1
100
AcDbSymbolTableRecord
100
AcDbBlockTableRecord
  2
*Paper_Space
340
1E
 70
     0
280
     1
281
     0
  0
BLOCK_RECORD
  5
23
330
1
100
AcDbSymbolTableRecord
100
AcDbBlockTableRecord
  2
*Paper_Space0
340
26
 70
     0
280
     1
281
     0
  0
BLOCK_RECORD
  5
B9
330
1
100
AcDbSymbolTableRecord
100
AcDbBlockTableRecord
  2
SW_BROKEN_VIEW_0
340
0
102
{BLKREFS
331
0
102
}
 70
     0
280
     1
281
     0
  0
BLOCK_RECORD
  5
E6
330
1
100
AcDbSymbolTableRecord
100
AcDbBlockTableRecord
  2
_D
340
0
 70
     0
280
     1
281
     0
  0
BLOCK_RECORD
  5
F4
330
1
100
AcDbSymbolTableRecord
100
AcDbBlockTableRecord
  2
_D_1
340
0
 70
     0
280
     1
281
     0
  0
BLOCK_RECORD
  5
106
330
1
100
AcDbSymbolTableRecord
100
AcDbBlockTableRecord
  2
_D_2
340
0
 70
     0
280
     1
281
     0
  0
ENDTAB
  0
ENDSEC
  0
SECTION
  2
BLOCKS
  0
BLOCK
  5
20
330
1F
100
AcDbEntity
  8
0
100
AcDbBlockBegin
  2
*Model_Space
 70
     0
 10
0.0
 20
0.0
 30
0.0
  3
*Model_Space
  1
*Model_Space
  0
ENDBLK
  5
21
330
1F
100
AcDbEntity
  8
0
100
AcDbBlockEnd
  0
BLOCK
  5
1C
330
1B
100
AcDbEntity
 67
     1
  8
0
100
AcDbBlockBegin
  2
*Paper_Space
 70
     0
 10
0.0
 20
0.0
 30
0.0
  3
*Paper_Space
  1
*Paper_Space
  0
ENDBLK
  5
1D
330
1B
100
AcDbEntity
 67
     1
  8
0
100
AcDbBlockEnd
  0
BLOCK
  5
24
330
23
100
AcDbEntity
  8
0
100
AcDbBlockBegin
  2
*Paper_Space0
 70
     0
 10
0.0
 20
0.0
 30
0.0
  3
*Paper_Space0
  1
*Paper_Space0
  0
ENDBLK
  5
25
330
23
100
AcDbEntity
  8
0
100
AcDbBlockEnd
  0
BLOCK
  5
BA
330
B9
100
AcDbEntity
  8
0
100
AcDbBlockBegin
  2
SW_BROKEN_VIEW_0
 70
     0
 10
0.0
 20
0.0
 30
0.0
  3
SW_BROKEN_VIEW_0
  1
SW_BROKEN_VIEW_0
  0
LINE
  5
BC
330
B9
100
AcDbEntity
  8
0
  6
Continuous
 62
     0
100
AcDbLine
 10
0.0
 20
0.0
 30
0.0
 11
133.576423
 21
0.0
 31
0.0
  0
ENDBLK
  5
BB
330
B9
100
AcDbEntity
  8
0
100
AcDbBlockEnd
  0
BLOCK
  5
E7
330
E6
100
AcDbEntity
  8
0
100
AcDbBlockBegin
  2
_D
 70
     0
 10
0.0
 20
0.0
 30
0.0
  3
_D
  1
_D
  0
SOLID
  5
E9
330
E6
100
AcDbEntity
  8
0
  6
Continuous
 62
     7
370
    18
100
AcDbTrace
 10
42.284415
 20
164.98192
 30
0.0
 11
41.776415
 21
161.67992
 31
0.0
 12
42.792415
 22
161.67992
 32
0.0
 13
42.792415
 23
161.67992
 33
0.0
  0
SOLID
  5
EA
330
E6
100
AcDbEntity
  8
0
  6
Continuous
 62
     7
370
    18
100
AcDbTrace
 10
42.284415
 20
188.05985
 30
0.0
 11
42.792415
 21
191.36185
 31
0.0
 12
41.776415
 22
191.36185
 32
0.0
 13
41.776415
 23
191.36185
 33
0.0
  0
LINE
  5
EB
330
E6
100
AcDbEntity
  8
0
  6
Continuous
 62
     7
370
     0
100
AcDbLine
 10
55.923415
 20
188.05985
 30
0.0
 11
41.284415
 21
188.05985
 31
0.0
  0
LINE
  5
EC
330
E6
100
AcDbEntity
  8
0
  6
Continuous
 62
     7
370
     0
100
AcDbLine
 10
42.284415
 20
164.98192
 30
0.0
 11
42.284415
 21
158.63192
 31
0.0
  0
LINE
  5
ED
330
E6
100
AcDbEntity
  8
0
  6
Continuous
 62
     7
370
     0
100
AcDbLine
 10
42.284415
 20
188.05985
 30
0.0
 11
42.284415
 21
194.40985
 31
0.0
  0
MTEXT
  5
EE
330
E6
100
AcDbEntity
  8
0
  6
Continuous
 62
     7
370
    18
100
AcDbMText
 10
39.021221
 20
185.046344
 30
0.0
 40
2.38125
 41
0.0
 46
0.0
 71
     1
 72
     1
  1
min.
  7
SLDTEXTSTYLE0
 73
     1
 44
1.0
  0
MTEXT
  5
EF
330
E6
100
AcDbEntity
  8
0
  6
Continuous
 62
     7
370
    18
100
AcDbMText
 10
36.375388
 20
181.496518
 30
0.0
 40
2.38125
 41
0.0
 46
0.0
 71
     1
 72
     1
  1
152 mm
  7
SLDTEXTSTYLE0
 73
     1
 44
1.0
  0
MTEXT
  5
F0
330
E6
100
AcDbEntity
  8
0
  6
Continuous
 62
     7
370
    18
100
AcDbMText
 10
39.590075
 20
177.946691
 30
0.0
 40
2.38125
 41
0.0
 46
0.0
 71
     1
 72
     1
  1
(6'')
  7
SLDTEXTSTYLE0
 73
     1
 44
1.0
  0
MTEXT
  5
F1
330
E6
100
AcDbEntity
  8
0
  6
Continuous
 62
     7
370
    18
100
AcDbMText
 10
33.817749
 20
174.396865
 30
0.0
 40
2.38125
 41
0.0
 46
0.0
 71
     1
 72
     1
  1
voir note#2
  7
SLDTEXTSTYLE0
 73
     1
 44
1.0
  0
ENDBLK
  5
E8
330
E6
100
AcDbEntity
  8
0
100
AcDbBlockEnd
  0
BLOCK
  5
F5
330
F4
100
AcDbEntity
  8
0
100
AcDbBlockBegin
  2
_D_1
 70
     0
 10
0.0
 20
0.0
 30
0.0
  3
_D_1
  1
_D_1
  0
SOLID
  5
F7
330
F4
100
AcDbEntity
  8
FORMAT
100
AcDbTrace
 10
43.078165
 20
45.928095
 30
0.0
 11
43.586165
 21
49.230095
 31
0.0
 12
42.570165
 22
49.230095
 32
0.0
 13
42.570165
 23
49.230095
 33
0.0
  0
SOLID
  5
F8
330
F4
100
AcDbEntity
  8
FORMAT
100
AcDbTrace
 10
43.078165
 20
164.98192
 30
0.0
 11
42.570165
 21
161.67992
 31
0.0
 12
43.586165
 22
161.67992
 32
0.0
 13
43.586165
 23
161.67992
 33
0.0
  0
LINE
  5
F9
330
F4
100
AcDbEntity
  8
FORMAT
100
AcDbLine
 10
68.394122
 20
45.928095
 30
0.0
 11
42.078165
 21
45.928095
 31
0.0
  0
LINE
  5
FA
330
F4
100
AcDbEntity
  8
FORMAT
100
AcDbLine
 10
43.078165
 20
45.928095
 30
0.0
 11
43.078165
 21
78.306083
 31
0.0
  0
LINE
  5
FB
330
F4
100
AcDbEntity
  8
FORMAT
100
AcDbLine
 10
43.078165
 20
164.98192
 30
0.0
 11
43.078165
 21
122.733636
 31
0.0
  0
LINE
  5
FC
330
F4
100
AcDbEntity
  8
FORMAT
100
AcDbLine
 10
43.078165
 20
78.306083
 30
0.0
 11
44.665665
 21
79.099833
 31
0.0
  0
LINE
  5
FD
330
F4
100
AcDbEntity
  8
FORMAT
100
AcDbLine
 10
44.665665
 20
79.099833
 30
0.0
 11
41.490665
 21
80.687333
 31
0.0
  0
LINE
  5
FE
330
F4
100
AcDbEntity
  8
FORMAT
100
AcDbLine
 10
41.490665
 20
80.687333
 30
0.0
 11
43.078165
 21
81.481083
 31
0.0
  0
LINE
  5
FF
330
F4
100
AcDbEntity
  8
FORMAT
100
AcDbLine
 10
43.078165
 20
81.481083
 30
0.0
 11
43.078165
 21
104.984505
 31
0.0
  0
MTEXT
  5
100
330
F4
100
AcDbEntity
  8
FORMAT
100
AcDbMText
 10
31.965663
 20
122.253402
 30
0.0
 40
2.38125
 41
0.0
 46
0.0
 71
     1
 72
     1
  1
Sous le niveau
  7
SLDTEXTSTYLE0
 73
     1
 44
1.0
  0
MTEXT
  5
101
330
F4
100
AcDbEntity
  8
FORMAT
100
AcDbMText
 10
30.618493
 20
118.703576
 30
0.0
 40
2.38125
 41
0.0
 46
0.0
 71
     1
 72
     1
  1
du gel et jusqu'à
  7
SLDTEXTSTYLE0
 73
     1
 44
1.0
  0
MTEXT
  5
102
330
F4
100
AcDbEntity
  8
FORMAT
100
AcDbMText
 10
30.530301
 20
115.15375
 30
0.0
 40
2.38125
 41
0.0
 46
0.0
 71
     1
 72
     1
  1
l'obtention de la
  7
SLDTEXTSTYLE0
 73
     1
 44
1.0
  0
MTEXT
  5
103
330
F4
100
AcDbEntity
  8
FORMAT
100
AcDbMText
 10
29.937193
 20
111.603923
 30
0.0
 40
2.38125
 41
0.0
 46
0.0
 71
     1
 72
     1
  1
capacité portante
  7
SLDTEXTSTYLE0
 73
     1
 44
1.0
  0
MTEXT
  5
104
330
F4
100
AcDbEntity
  8
FORMAT
100
AcDbMText
 10
36.992748
 20
108.054097
 30
0.0
 40
2.38125
 41
0.0
 46
0.0
 71
     1
 72
     1
  1
requise.
  7
SLDTEXTSTYLE0
 73
     1
 44
1.0
  0
ENDBLK
  5
F6
330
F4
100
AcDbEntity
  8
0
100
AcDbBlockEnd
  0
BLOCK
  5
107
330
106
100
AcDbEntity
  8
0
100
AcDbBlockBegin
  2
_D_2
 70
     0
 10
0.0
 20
0.0
 30
0.0
  3
_D_2
  1
_D_2
  0
SOLID
  5
109
330
106
100
AcDbEntity
  8
FORMAT
100
AcDbTrace
 10
80.975059
 20
41.076851
 30
0.0
 11
77.673059
 21
41.584851
 31
0.0
 12
77.673059
 22
40.568851
 32
0.0
 13
77.673059
 23
40.568851
 33
0.0
  0
SOLID
  5
10A
330
106
100
AcDbEntity
  8
FORMAT
100
AcDbTrace
 10
49.225334
 20
41.076851
 30
0.0
 11
52.527334
 21
40.568851
 31
0.0
 12
52.527334
 22
41.584851
 32
0.0
 13
52.527334
 23
41.584851
 33
0.0
  0
LINE
  5
10B
330
106
100
AcDbEntity
  8
FORMAT
100
AcDbLine
 10
80.975059
 20
62.07297
 30
0.0
 11
80.975059
 21
40.076851
 31
0.0
  0
LINE
  5
10C
330
106
100
AcDbEntity
  8
FORMAT
100
AcDbLine
 10
49.225334
 20
56.97065
 30
0.0
 11
49.225334
 21
40.076851
 31
0.0
  0
LINE
  5
10D
330
106
100
AcDbEntity
  8
FORMAT
100
AcDbLine
 10
80.975059
 20
41.076851
 30
0.0
 11
90.024129
 21
41.076851
 31
0.0
  0
LINE
  5
10E
330
106
100
AcDbEntity
  8
FORMAT
100
AcDbLine
 10
49.225334
 20
41.076851
 30
0.0
 11
80.975059
 21
41.076851
 31
0.0
  0
MTEXT
  5
10F
330
106
100
AcDbEntity
  8
FORMAT
100
AcDbMText
 10
90.55316
 20
47.69627
 30
0.0
 40
2.38125
 41
0.0
 46
0.0
 71
     1
 72
     1
  1
203 à 406 mm
  7
SLDTEXTSTYLE0
 73
     1
 44
1.0
  0
MTEXT
  5
110
330
106
100
AcDbEntity
  8
FORMAT
100
AcDbMText
 10
90.55316
 20
44.146443
 30
0.0
 40
2.38125
 41
0.0
 46
0.0
 71
     1
 72
     1
  1
(8'' à 16'')
  7
SLDTEXTSTYLE0
 73
     1
 44
1.0
  0
MTEXT
  5
111
330
106
100
AcDbEntity
  8
FORMAT
100
AcDbMText
 10
90.55316
 20
40.596617
 30
0.0
 40
2.38125
 41
0.0
 46
0.0
 71
     1
 72
     1
  1
Selon le type de sol et la
  7
SLDTEXTSTYLE0
 73
     1
 44
1.0
  0
MTEXT
  5
112
330
106
100
AcDbEntity
  8
FORMAT
100
AcDbMText
 10
90.55316
 20
37.046791
 30
0.0
 40
2.38125
 41
0.0
 46
0.0
 71
     1
 72
     1
  1
capacité portante requise.
  7
SLDTEXTSTYLE0
 73
     1
 44
1.0
  0
ENDBLK
  5
108
330
106
100
AcDbEntity
  8
0
100
AcDbBlockEnd
  0
ENDSEC
  0
SECTION
  2
ENTITIES
  0
LINE
  5
13A
330
1F
100
AcDbEntity
  8
0
  6
Continuous
 62
     7
370
    25
100
AcDbLine
 10
177.168793
 20
180.534356
 30
0.0
 11
177.168793
 21
44.167958
 31
0.0
  0
LINE
  5
13B
330
1F
100
AcDbEntity
  8
0
  6
Continuous
 62
     7
370
    25
100
AcDbLine
 10
185.423793
 20
44.167958
 30
0.0
 11
185.423793
 21
180.534356
 31
0.0
  0
LINE
  5
13C
330
1F
100
AcDbEntity
  8
0
  6
Continuous
 62
     7
370
    25
100
AcDbLine
 10
193.996293
 20
27.633381
 30
0.0
 11
193.996293
 21
28.411136
 31
0.0
  0
LINE
  5
13D
330
1F
100
AcDbEntity
  8
0
  6
Continuous
 62
     7
370
    25
100
AcDbLine
 10
168.596293
 20
31.750298
 30
0.0
 11
168.596293
 21
30.972543
 31
0.0
  0
LINE
  5
13E
330
1F
100
AcDbEntity
  8
0
  6
Continuous
 62
     7
370
    25
100
AcDbLine
 10
184.947543
 20
23.85085
 30
0.0
 11
184.947543
 21
24.690272
 31
0.0
  0
LINE
  5
13F
330
1F
100
AcDbEntity
  8
0
  6
Continuous
 62
     7
370
    25
100
AcDbLine
 10
184.947543
 20
27.999002
 30
0.0
 11
184.947543
 21
43.056828
 31
0.0
  0
LINE
  5
140
330
1F
100
AcDbEntity
  8
0
  6
Continuous
 62
     7
370
    25
100
AcDbLine
 10
184.947543
 20
180.534356
 30
0.0
 11
184.947543
 21
189.922221
 31
0.0
  0
LINE
  5
141
330
1F
100
AcDbEntity
  8
0
  6
Continuous
 62
     7
370
    25
100
AcDbLine
 10
177.645043
 20
189.902068
 30
0.0
 11
177.645043
 21
180.534356
 31
0.0
  0
LINE
  5
142
330
1F
100
AcDbEntity
  8
0
  6
Continuous
 62
     7
370
    25
100
AcDbLine
 10
177.645043
 20
43.056828
 30
0.0
 11
177.645043
 21
31.53117
 31
0.0
  0
LINE
  5
143
330
1F
100
AcDbEntity
  8
0
  6
Continuous
 62
     7
370
    25
100
AcDbLine
 10
177.645043
 20
25.315795
 30
0.0
 11
177.645043
 21
19.634521
 31
0.0
  0
LINE
  5
144
330
1F
100
AcDbEntity
  8
0
  6
Continuous
 62
     7
370
    25
100
AcDbLine
 10
189.996069
 20
192.988514
 30
0.0
 11
189.996069
 21
193.507018
 31
0.0
  0
LINE
  5
145
330
1F
100
AcDbEntity
  8
0
  6
Continuous
 62
     7
370
    25
100
AcDbLine
 10
172.561608
 20
193.507018
 30
0.0
 11
172.561608
 21
192.988514
 31
0.0
  0
LINE
  5
146
330
1F
100
AcDbEntity
  8
0
  6
Continuous
 62
     7
370
    25
100
AcDbLine
 10
184.947543
 20
184.682384
 30
0.0
 11
184.947543
 21
189.922221
 31
0.0
  0
LINE
  5
147
330
1F
100
AcDbEntity
  8
0
  6
Continuous
 62
     7
370
    25
100
AcDbLine
 10
177.645043
 20
189.902068
 30
0.0
 11
177.645043
 21
184.682384
 31
0.0
  0
LWPOLYLINE
  5
148
330
1F
100
AcDbEntity
  8
0
  6
Continuous
 62
     7
370
    25
100
AcDbPolyline
 90
       32
 70
   128
 43
0.0
 10
184.214876
 20
178.849494
 10
183.933133
 20
178.701222
 10
183.628893
 20
178.568589
 10
183.304753
 20
178.452728
 10
182.963477
 20
178.354627
 10
182.607977
 20
178.275122
 10
182.241286
 20
178.214892
 10
181.866533
 20
178.174451
 10
181.486915
 20
178.154144
 10
181.10567
 20
178.154144
 10
180.726052
 20
178.174451
 10
180.351299
 20
178.214892
 10
179.984609
 20
178.275122
 10
179.629109
 20
178.354627
 10
179.287833
 20
178.452728
 10
178.963692
 20
178.568589
 10
178.659452
 20
178.701222
 10
178.377709
 20
178.849494
 10
178.120867
 20
179.012141
 10
177.891116
 20
179.187775
 10
177.690416
 20
179.374897
 10
177.520481
 20
179.571911
 10
177.38276
 20
179.777137
 10
177.278427
 20
179.988823
 10
177.208374
 20
180.205163
 10
177.173197
 20
180.424312
 10
177.173197
 20
180.6444
 10
177.208374
 20
180.863549
 10
177.278427
 20
181.079889
 10
177.38276
 20
181.291575
 10
177.520481
 20
181.496801
 10
177.645043
 20
181.645486
  0
LWPOLYLINE
  5
149
330
1F
100
AcDbEntity
  8
0
  6
Continuous
 62
     7
370
    25
100
AcDbPolyline
 90
       15
 70
   128
 43
0.0
 10
184.947543
 20
181.645486
 10
185.072104
 20
181.496801
 10
185.209826
 20
181.291575
 10
185.314158
 20
181.079889
 10
185.384212
 20
180.863549
 10
185.419388
 20
180.6444
 10
185.419388
 20
180.424312
 10
185.384212
 20
180.205163
 10
185.314158
 20
179.988823
 10
185.209826
 20
179.777137
 10
185.072104
 20
179.571911
 10
184.902169
 20
179.374897
 10
184.70147
 20
179.187775
 10
184.471719
 20
179.012141
 10
184.214876
 20
178.849494
  0
LWPOLYLINE
  5
14A
330
1F
100
AcDbEntity
  8
0
  6
Continuous
 62
     7
370
    25
100
AcDbPolyline
 90
       27
 70
   128
 43
0.0
 10
184.214876
 20
42.483096
 10
183.933133
 20
42.334824
 10
183.628893
 20
42.202191
 10
183.304753
 20
42.08633
 10
182.963477
 20
41.988228
 10
182.607977
 20
41.908723
 10
182.241286
 20
41.848494
 10
181.866533
 20
41.808052
 10
181.486915
 20
41.787745
 10
181.10567
 20
41.787745
 10
180.726052
 20
41.808052
 10
180.351299
 20
41.848494
 10
179.984609
 20
41.908723
 10
179.629109
 20
41.988228
 10
179.287833
 20
42.08633
 10
178.963692
 20
42.202191
 10
178.659452
 20
42.334824
 10
178.377709
 20
42.483096
 10
178.120867
 20
42.645742
 10
177.891116
 20
42.821376
 10
177.690416
 20
43.008499
 10
177.520481
 20
43.205513
 10
177.38276
 20
43.410739
 10
177.278427
 20
43.622425
 10
177.208374
 20
43.838765
 10
177.173197
 20
44.057914
 10
177.168793
 20
44.167958
  0
LWPOLYLINE
  5
14B
330
1F
100
AcDbEntity
  8
0
  6
Continuous
 62
     7
370
    25
100
AcDbPolyline
 90
       10
 70
   128
 43
0.0
 10
185.423793
 20
44.167958
 10
185.419388
 20
44.057914
 10
185.384212
 20
43.838765
 10
185.314158
 20
43.622425
 10
185.209826
 20
43.410739
 10
185.072104
 20
43.205513
 10
184.902169
 20
43.008499
 10
184.70147
 20
42.821376
 10
184.471719
 20
42.645742
 10
184.214876
 20
42.483096
  0
LWPOLYLINE
  5
14C
330
1F
100
AcDbEntity
  8
0
  6
Continuous
 62
     7
370
    25
100
AcDbPolyline
 90
       25
 70
   128
 43
0.0
 10
183.878116
 20
179.043901
 10
183.612621
 20
178.904988
 10
183.324818
 20
178.781766
 10
183.01748
 20
178.675423
 10
182.693565
 20
178.586983
 10
182.356195
 20
178.517297
 10
182.008616
 20
178.467036
 10
181.654178
 20
178.436684
 10
181.296293
 20
178.426534
 10
180.938408
 20
178.436684
 10
180.583969
 20
178.467036
 10
180.236391
 20
178.517297
 10
179.89902
 20
178.586983
 10
179.575105
 20
178.675423
 10
179.267767
 20
178.781766
 10
178.979964
 20
178.904988
 10
178.714469
 20
179.043901
 10
178.473838
 20
179.197168
 10
178.260389
 20
179.363313
 10
178.076178
 20
179.540736
 10
177.922977
 20
179.727728
 10
177.802264
 20
179.922488
 10
177.7152
 20
180.123141
 10
177.662624
 20
180.327754
 10
177.645043
 20
180.534356
  0
LWPOLYLINE
  5
14D
330
1F
100
AcDbEntity
  8
0
  6
Continuous
 62
     7
370
    25
100
AcDbPolyline
 90
        9
 70
   128
 43
0.0
 10
184.947543
 20
180.534356
 10
184.929961
 20
180.327754
 10
184.877385
 20
180.123141
 10
184.790321
 20
179.922488
 10
184.669608
 20
179.727728
 10
184.516408
 20
179.540736
 10
184.332196
 20
179.363313
 10
184.118747
 20
179.197168
 10
183.878116
 20
179.043901
  0
LINE
  5
14E
330
1F
100
AcDbEntity
  8
0
  6
Continuous
 62
     7
370
    25
100
AcDbLine
 10
182.572242
 20
31.766432
 30
0.0
 11
185.639948
 21
26.900788
 31
0.0
  0
SPLINE
  5
14F
330
1F
100
AcDbEntity
  8
0
  6
Continuous
 62
     7
370
    25
100
AcDbSpline
210
0.0
220
0.0
230
1.0
 70
     8
 71
     3
 72
    44
 73
    40
 74
     0
 42
0.000000001
 43
0.00000001
 40
0.0
 40
0.0
 40
0.0
 40
0.0
 40
0.0273840261168542
 40
0.0549366192764293
 40
0.0825496081675861
 40
0.1101133654094018
 40
0.1375194512862375
 40
0.1643930008365936
 40
0.1914386206376217
 40
0.21855702025278
 40
0.2456443723305251
 40
0.2730854508770488
 40
0.3004252450930485
 40
0.3279420671184178
 40
0.3555493438664072
 40
0.3831375860947534
 40
0.410109451491182
 40
0.4369513497896845
 40
0.4639552810885091
 40
0.4910627856535463
 40
0.5186621928519374
 40
0.5461523009742377
 40
0.5734814997696616
 40
0.6009543901802137
 40
0.628547628380102
 40
0.6556599740884149
 40
0.6826794361185371
 40
0.7095279991723439
 40
0.7364811995879585
 40
0.7640613379891961
 40
0.7916717020831515
 40
0.8192027279763002
 40
0.8465549850759224
 40
0.8739758633605799
 40
0.9010540430330116
 40
0.9281740574885115
 40
0.9552320416884905
 40
0.9821255732342936
 40
0.9999999999999999
 40
0.9999999999999999
 40
0.9999999999999999
 40
0.9999999999999999
 10
185.6399484242315
 20
26.90078801379842
 30
0.0
 10
185.2882397107793
 20
26.8019656285881
 30
0.0
 10
184.5826572809104
 20
26.60371254012252
 30
0.0
 10
183.488224875502
 20
26.3732865724231
 30
0.0
 10
182.3768052892302
 20
26.19450834659868
 30
0.0
 10
181.2582980765366
 20
26.0740711768465
 30
0.0
 10
180.1501131720763
 20
26.01209220491121
 30
0.0
 10
179.0575348800423
 20
26.00613375347404
 30
0.0
 10
177.985695069013
 20
26.05220900543269
 30
0.0
 10
176.9358812049649
 20
26.15124018670729
 30
0.0
 10
175.913833227395
 20
26.3028921251519
 30
0.0
 10
174.9297943718859
 20
26.50661766783187
 30
0.0
 10
173.989410735291
 20
26.76152492196436
 30
0.0
 10
173.1036480638772
 20
27.06124183506134
 30
0.0
 10
172.2789007731079
 20
27.40503571268152
 30
0.0
 10
171.5292642549913
 20
27.78665584295604
 30
0.0
 10
170.8605191485504
 20
28.20113288267535
 30
0.0
 10
170.2738430212392
 20
28.64536305375505
 30
0.0
 10
169.7681898778213
 20
29.11557404107698
 30
0.0
 10
169.3446860634042
 20
29.61292460725996
 30
0.0
 10
169.0102153876709
 20
30.13247723358799
 30
0.0
 10
168.7698833707608
 20
30.66873237556246
 30
0.0
 10
168.6262134602993
 20
31.21587006538576
 30
0.0
 10
168.5799082775524
 20
31.76669027553242
 30
0.0
 10
168.6317840907976
 20
32.31511728064631
 30
0.0
 10
168.779847209072
 20
32.85539514514668
 30
0.0
 10
169.0200607895029
 20
33.38156234295542
 30
0.0
 10
169.3509633537107
 20
33.89451247056068
 30
0.0
 10
169.7732734762448
 20
34.39088315093198
 30
0.0
 10
170.2874852114965
 20
34.86717964557194
 30
0.0
 10
170.8909473623382
 20
35.31809848524374
 30
0.0
 10
171.5734168915075
 20
35.73543011886454
 30
0.0
 10
172.3293198268815
 20
36.11735415237849
 30
0.0
 10
173.1495149237503
 20
36.45655731254803
 30
0.0
 10
174.0290638122706
 20
36.75063000820757
 30
0.0
 10
174.9589239854508
 20
36.9985822123293
 30
0.0
 10
175.935242948783
 20
37.19646229815926
 30
0.0
 10
176.8320800927089
 20
37.3363421740796
 30
0.0
 10
177.4130712502013
 20
37.38621134890835
 30
0.0
 10
177.6450426039955
 20
37.40612252973862
 30
0.0
  0
SPLINE
  5
150
330
1F
100
AcDbEntity
  8
0
  6
Continuous
 62
     7
370
    25
100
AcDbSpline
210
0.0
220
0.0
230
1.0
 70
     8
 71
     3
 72
    30
 73
    26
 74
     0
 42
0.000000001
 43
0.00000001
 40
0.0
 40
0.0
 40
0.0
 40
0.0
 40
0.0295236017985971
 40
0.0734942769089376
 40
0.1180391532771917
 40
0.1624196156274768
 40
0.2070874457599265
 40
0.2519021102971976
 40
0.2966858762557988
 40
0.3404690827893229
 40
0.3840413148052364
 40
0.4278765736535208
 40
0.4718799621301897
 40
0.5166818520925351
 40
0.5613063177665691
 40
0.6056695806580643
 40
0.6502660969626931
 40
0.6950579728406735
 40
0.7390692199052737
 40
0.7829296896615181
 40
0.8265127405197211
 40
0.8702656483439081
 40
0.9135124551917853
 40
0.9568107046663192
 40
1.0
 40
1.0
 40
1.0
 40
1.0
 10
184.9475426039955
 20
36.7857113877652
 30
0.0
 10
185.1834397628492
 20
36.72403672908236
 30
0.0
 10
185.77066794839
 20
36.57050754675488
 30
0.0
 10
186.6780677711231
 20
36.26405849742527
 30
0.0
 10
187.6629743758504
 20
35.87710615233313
 30
0.0
 10
188.6031250212405
 20
35.43839615026505
 30
0.0
 10
189.4889504803746
 20
34.95114155426979
 30
0.0
 10
190.3136808565043
 20
34.41823814324418
 30
0.0
 10
191.0633218878618
 20
33.84896161715412
 30
0.0
 10
191.7320658127545
 20
33.25022068272998
 30
0.0
 10
192.3187422530403
 20
32.62614855330834
 30
0.0
 10
192.8243953127041
 20
31.97207964251308
 30
0.0
 10
193.2478991478341
 20
31.2880199763062
 30
0.0
 10
193.5823698252945
 20
30.58063347313179
 30
0.0
 10
193.8227018142719
 20
29.85727222080305
 30
0.0
 10
193.9663718342191
 20
29.12704950513528
 30
0.0
 10
194.012676604627
 20
28.3895055413483
 30
0.0
 10
193.960802329959
 20
27.65333748977958
 30
0.0
 10
193.81273356762
 20
26.92627608635083
 30
0.0
 10
193.5725408586688
 20
26.21592344062507
 30
0.0
 10
193.2415608208116
 20
25.52299612766261
 30
0.0
 10
192.8244106355299
 20
24.85050159493284
 30
0.0
 10
192.3223546825553
 20
24.20199778185926
 30
0.0
 10
191.7475264349845
 20
23.58014002343649
 30
0.0
 10
191.3010644911054
 20
23.19234108983832
 30
0.0
 10
191.0781147381415
 20
22.99868589115743
 30
0.0
  0
SPLINE
  5
151
330
1F
100
AcDbEntity
  8
0
  6
Continuous
 62
     7
370
    25
100
AcDbSpline
210
0.0
220
0.0
230
1.0
 70
     8
 71
     3
 72
    12
 73
     8
 74
     0
 42
0.000000001
 43
0.00000001
 40
0.0
 40
0.0
 40
0.0
 40
0.0
 40
0.0378527565654681
 40
0.2770925074815004
 40
0.5176063356654118
 40
0.7586625091201737
 40
1.0
 40
1.0
 40
1.0
 40
1.0
 10
185.6303017101001
 20
26.12640315960174
 30
0.0
 10
185.7015662213898
 20
26.08635461797136
 30
0.0
 10
186.223241890995
 20
25.79318836461944
 30
0.0
 10
187.1646218366141
 20
25.25155051250008
 30
0.0
 10
188.4751911793381
 20
24.49935444763661
 30
0.0
 10
189.7782641146369
 20
23.74834923541595
 30
0.0
 10
190.6446628161401
 20
23.2486703801336
 30
0.0
 10
191.0781147956779
 20
22.99868525367907
 30
0.0
  0
SPLINE
  5
152
330
1F
100
AcDbEntity
  8
0
  6
Continuous
 62
     7
370
    25
100
AcDbSpline
210
0.0
220
0.0
230
1.0
 70
     8
 71
     3
 72
    21
 73
    17
 74
     0
 42
0.000000001
 43
0.00000001
 40
0.0
 40
0.0
 40
0.0
 40
0.0
 40
0.0742453129455134
 40
0.1489712908811363
 40
0.2230898968264174
 40
0.2974718490801069
 40
0.3721747833525839
 40
0.4462088253463176
 40
0.5207050660888541
 40
0.5953619597750024
 40
0.6693536920336703
 40
0.7439416414526265
 40
0.8185295908715825
 40
0.8925213231302506
 40
0.9671782168163988
 40
0.9999999999999999
 40
0.9999999999999999
 40
0.9999999999999999
 40
0.9999999999999999
 10
182.5722415011898
 20
31.76643180613245
 30
0.0
 10
182.3858806138565
 20
31.67753954309677
 30
0.0
 10
182.0119523367117
 20
31.4991795275159
 30
0.0
 10
181.4273592452768
 20
31.29440921144486
 30
0.0
 10
180.8396574271414
 20
31.14339969238289
 30
0.0
 10
180.2634113865231
 20
31.04442902367747
 30
0.0
 10
179.7138637350278
 20
30.99388952893049
 30
0.0
 10
179.2012121250409
 20
30.99683058050397
 30
0.0
 10
178.7413999967411
 20
31.04034625119471
 30
0.0
 10
178.3448685708834
 20
31.12139732145068
 30
0.0
 10
178.019625546683
 20
31.24078493765238
 30
0.0
 10
177.7764233773145
 20
31.38096510438816
 30
0.0
 10
177.6183643980088
 20
31.53945294814409
 30
0.0
 10
177.5558154875639
 20
31.71278966662955
 30
0.0
 10
177.5640254004778
 20
31.85192760338323
 30
0.0
 10
177.6260895008696
 20
31.93039622525912
 30
0.0
 10
177.6450426039955
 20
31.95435893273688
 30
0.0
  0
SPLINE
  5
153
330
1F
100
AcDbEntity
  8
0
  6
Continuous
 62
     7
370
    25
100
AcDbSpline
210
0.0
220
0.0
230
1.0
 70
     8
 71
     3
 72
    11
 73
     7
 74
     0
 42
0.000000001
 43
0.00000001
 40
0.0
 40
0.0
 40
0.0
 40
0.0
 40
0.0319764242841998
 40
0.4808496724610647
 40
0.9337581440527735
 40
1.0
 40
1.0
 40
1.0
 40
1.0
 10
184.9475426039955
 20
29.05858077963329
 30
0.0
 10
184.9513014841277
 20
29.04694090252779
 30
0.0
 10
185.0078261369254
 20
28.87190472450124
 30
0.0
 10
185.027868325927
 20
28.52392801014768
 30
0.0
 10
185.0348506692909
 20
28.1597278231631
 30
0.0
 10
184.987914908979
 20
27.96882584001849
 30
0.0
 10
184.9819260619949
 20
27.94446738159767
 30
0.0
  0
LINE
  5
154
330
1F
100
AcDbEntity
  8
0
  6
Continuous
 62
     7
370
    25
100
AcDbLine
 10
185.639948
 20
26.900788
 30
0.0
 11
185.639948
 21
26.123033
 31
0.0
  0
SPLINE
  5
155
330
1F
100
AcDbEntity
  8
0
  6
Continuous
 62
     7
370
    25
100
AcDbSpline
210
0.0
220
0.0
230
1.0
 70
     8
 71
     3
 72
    29
 73
    25
 74
     0
 42
0.000000001
 43
0.00000001
 40
0.0
 40
0.0
 40
0.0
 40
0.0
 40
0.0456259241157483
 40
0.0915327063882475
 40
0.1375401170728839
 40
0.1834655003928316
 40
0.2291281794010355
 40
0.2739035724448911
 40
0.3189656605191351
 40
0.3641490107577702
 40
0.409280631109063
 40
0.4550016131909268
 40
0.5005538402782223
 40
0.546401022437581
 40
0.5923989158288296
 40
0.638365094835016
 40
0.6833042969299269
 40
0.7280269542069859
 40
0.7730195829391336
 40
0.8181847803784709
 40
0.8641695619113218
 40
0.9099722346727908
 40
0.9555068081888727
 40
0.9999999999999999
 40
0.9999999999999999
 40
0.9999999999999999
 40
0.9999999999999999
 10
185.6399484242315
 20
26.12303289047725
 30
0.0
 10
185.2882397107793
 20
26.02421050526692
 30
0.0
 10
184.5826572809104
 20
25.82595741680136
 30
0.0
 10
183.488224875502
 20
25.59553144910194
 30
0.0
 10
182.3768052892299
 20
25.41675322327751
 30
0.0
 10
181.2582980765375
 20
25.29631605352534
 30
0.0
 10
180.1501131720731
 20
25.23433708159006
 30
0.0
 10
179.0575348800544
 20
25.22837863015279
 30
0.0
 10
177.9856950689678
 20
25.27445388211186
 30
0.0
 10
176.9358812051338
 20
25.37348506338486
 30
0.0
 10
175.9138332267618
 20
25.52513700183546
 30
0.0
 10
174.9297943742796
 20
25.72886254449277
 30
0.0
 10
173.9894107263737
 20
25.98376979870999
 30
0.0
 10
173.1036480974466
 20
26.28348671148872
 30
0.0
 10
172.2789006474295
 20
26.6272805903017
 30
0.0
 10
171.5292647191865
 20
27.00890071615801
 30
0.0
 10
170.8605174625915
 20
27.42337777198221
 30
0.0
 10
170.2738493002553
 20
27.86760788340331
 30
0.0
 10
169.7681662433115
 20
28.33781909478107
 30
0.0
 10
169.3447753084052
 20
28.83516881548322
 30
0.0
 10
169.0098762034093
 20
29.35472465079696
 30
0.0
 10
168.7711397638394
 20
29.89096784170893
 30
0.0
 10
168.6229417360428
 20
30.43303853654709
 30
0.0
 10
168.6059990238821
 20
30.79412170240663
 30
0.0
 10
168.5976256588516
 20
30.97257489959491
 30
0.0
  0
SPLINE
  5
156
330
1F
100
AcDbEntity
  8
0
  6
Continuous
 62
     7
370
    25
100
AcDbSpline
210
0.0
220
0.0
230
1.0
 70
     8
 71
     3
 72
    17
 73
    13
 74
     0
 42
0.000000001
 43
0.00000001
 40
0.0
 40
0.0
 40
0.0
 40
0.0
 40
0.0031544060331459
 40
0.1163828333701513
 40
0.2276379257855792
 40
0.338511871460251
 40
0.4486845358216696
 40
0.5592865779832717
 40
0.6696863809227868
 40
0.780214718910046
 40
0.8904540892499061
 40
1.0
 40
1.0
 40
1.0
 40
1.0
 10
193.9949595491395
 20
27.63334902392527
 30
0.0
 10
193.9954023547504
 20
27.62647736166189
 30
0.0
 10
194.0117398113374
 20
27.37294515440296
 30
0.0
 10
193.953690647527
 20
26.8753978364527
 30
0.0
 10
193.814623309239
 20
26.14856717789014
 30
0.0
 10
193.5720196015847
 20
25.43816601023251
 30
0.0
 10
193.2417721762627
 20
24.74520463963641
 30
0.0
 10
192.8227249619924
 20
24.0707005000589
 30
0.0
 10
192.3183737349876
 20
23.41736464245638
 30
0.0
 10
191.7316362858129
 20
22.79242869045217
 30
0.0
 10
191.0741700353836
 20
22.19764946477157
 30
0.0
 10
190.577014335301
 20
21.83259836181321
 30
0.0
 10
190.3292207902553
 20
21.65064870919963
 30
0.0
  0
LINE
  5
157
330
1F
100
AcDbEntity
  8
0
  6
Continuous
 62
     7
370
    25
100
AcDbLine
 10
191.078115
 20
22.998685
 30
0.0
 11
190.329221
 21
21.650649
 31
0.0
  0
SPLINE
  5
158
330
1F
100
AcDbEntity
  8
0
  6
Continuous
 62
     7
370
    25
100
AcDbSpline
210
0.0
220
0.0
230
1.0
 70
     8
 71
     3
 72
    15
 73
    11
 74
     0
 42
0.000000001
 43
0.00000001
 40
0.0
 40
0.0
 40
0.0
 40
0.0
 40
0.1410521562134083
 40
0.271406598433281
 40
0.3910651083524948
 40
0.5000299923351307
 40
0.6441904233841452
 40
0.7755636308274243
 40
0.8941614495128116
 40
1.0
 40
1.0
 40
1.0
 40
1.0
 10
187.1061167135952
 20
23.44414701235903
 30
0.0
 10
186.9568706021786
 20
23.53413114068832
 30
0.0
 10
186.6696975414019
 20
23.70727479788905
 30
0.0
 10
186.2559555365796
 20
23.95870645483404
 30
0.0
 10
185.8762012700145
 20
24.19112218343582
 30
0.0
 10
185.4819054732029
 20
24.43469259051376
 30
0.0
 10
185.0753129360576
 20
24.68883450161784
 30
0.0
 10
184.6587039960215
 20
24.95344953270912
 30
0.0
 10
184.2827742931186
 20
25.19615912698431
 30
0.0
 10
184.0459318042617
 20
25.35383513502985
 30
0.0
 10
183.9342428395596
 20
25.42819117723312
 30
0.0
  0
LINE
  5
159
330
1F
100
AcDbEntity
  8
0
  6
Continuous
 62
     7
370
    25
100
AcDbLine
 10
183.934243
 20
25.428191
 30
0.0
 11
184.080686
 21
25.731259
 31
0.0
  0
SPLINE
  5
15A
330
1F
100
AcDbEntity
  8
0
  6
Continuous
 62
     7
370
    25
100
AcDbSpline
210
0.0
220
0.0
230
1.0
 70
     8
 71
     3
 72
     9
 73
     5
 74
     0
 42
0.000000001
 43
0.00000001
 40
0.0
 40
0.0
 40
0.0
 40
0.0
 40
0.4999993149487417
 40
1.0
 40
1.0
 40
1.0
 40
1.0
 10
190.3292207902553
 20
21.65064870919963
 30
0.0
 10
189.7947079626209
 20
21.95187610524882
 30
0.0
 10
188.7256808426754
 20
22.55433172277316
 30
0.0
 10
187.6459761806049
 20
23.14754932986384
 30
0.0
 10
187.1061231099167
 20
23.44415853979365
 30
0.0
  0
LINE
  5
15B
330
1F
100
AcDbEntity
  8
0
  6
Continuous
 62
     7
370
    25
100
AcDbLine
 10
183.934243
 20
25.275237
 30
0.0
 11
183.934243
 21
25.428191
 31
0.0
  0
SPLINE
  5
15C
330
1F
100
AcDbEntity
  8
0
  6
Continuous
 62
     7
370
    25
100
AcDbSpline
210
0.0
220
0.0
230
1.0
 70
     8
 71
     3
 72
     9
 73
     5
 74
     0
 42
0.000000001
 43
0.00000001
 40
0.0
 40
0.0
 40
0.0
 40
0.0
 40
0.1218088010839348
 40
1.0
 40
1.0
 40
1.0
 40
1.0
 10
184.9475426039955
 20
28.28082565631211
 30
0.0
 10
184.9513627353825
 20
28.2691920305522
 30
0.0
 10
184.982724437928
 20
28.17368476296238
 30
0.0
 10
184.9879307860153
 20
28.07567409797876
 30
0.0
 10
184.9925029550839
 20
27.98960199459025
 30
0.0
  0
LINE
  5
15D
330
1F
100
AcDbEntity
  8
0
  6
Continuous
 62
     7
370
    25
100
AcDbLine
 10
187.105857
 20
23.444303
 30
0.0
 11
183.934243
 21
25.275237
 31
0.0
  0
ELLIPSE
  5
15E
330
1F
100
AcDbEntity
  8
0
  6
Continuous
 62
     7
370
    25
100
AcDbEllipse
 10
181.296293
 20
21.742685
 30
0.0
 11
3.651249973940708
 21
2.108164365786135
 31
0.0
210
0.0
220
0.0
230
1.0
 40
0.00007
 41
0.0
 42
6.283185307179586
  0
ARC
  5
15F
330
1F
100
AcDbEntity
  8
0
  6
Continuous
 62
     7
370
    25
100
AcDbCircle
 10
181.296323
 20
197.171265
 30
0.0
 40
6.300667651398554
100
AcDbArc
 50
265.582947
 51
274.089901
  0
ARC
  5
160
330
1F
100
AcDbEntity
  8
0
  6
Continuous
 62
     7
370
    25
100
AcDbCircle
 10
181.296324
 20
188.78628
 30
0.0
 40
6.299999664736336
100
AcDbArc
 50
85.824039
 51
94.494921
  0
SPLINE
  5
161
330
1F
100
AcDbEntity
  8
0
  6
Continuous
 62
     7
370
    25
100
AcDbSpline
210
0.0
220
0.0
230
1.0
 70
    11
 71
     3
 72
    92
 73
    88
 74
     0
 42
0.000000001
 43
0.00000001
 40
0.0
 40
0.0
 40
0.0
 40
0.0
 40
0.0312499999999902
 40
0.0312499999999902
 40
0.0468749999999853
 40
0.0468749999999853
 40
0.0624999999999804
 40
0.0624999999999804
 40
0.0937499999999706
 40
0.0937499999999706
 40
0.1093749999999657
 40
0.1093749999999657
 40
0.1249999999999608
 40
0.1249999999999608
 40
0.1562499999999367
 40
0.1562499999999367
 40
0.1874999999999126
 40
0.1874999999999126
 40
0.2031249999999006
 40
0.2031249999999006
 40
0.2187499999998885
 40
0.2187499999998885
 40
0.2499999999998644
 40
0.2499999999998644
 40
0.2812499999998403
 40
0.2812499999998403
 40
0.3124999999998162
 40
0.3124999999998162
 40
0.3281249999998081
 40
0.3281249999998081
 40
0.3437499999998
 40
0.3437499999998
 40
0.3593749999997918
 40
0.3593749999997918
 40
0.3749999999997837
 40
0.3749999999997837
 40
0.4062499999997674
 40
0.4062499999997674
 40
0.437499999999751
 40
0.437499999999751
 40
0.4687499999997347
 40
0.4687499999997347
 40
0.4843749999997265
 40
0.4843749999997265
 40
0.4999999999997183
 40
0.4999999999997183
 40
0.5312499999997226
 40
0.5312499999997226
 40
0.5624999999997268
 40
0.5624999999997268
 40
0.5781249999997288
 40
0.5781249999997288
 40
0.5937499999997309
 40
0.5937499999997309
 40
0.6249999999997519
 40
0.6249999999997519
 40
0.6406249999997624
 40
0.6406249999997624
 40
0.656249999999773
 40
0.656249999999773
 40
0.6874999999997938
 40
0.6874999999997938
 40
0.7187499999998148
 40
0.7187499999998148
 40
0.7343749999998274
 40
0.7343749999998274
 40
0.7499999999998399
 40
0.7499999999998399
 40
0.781249999999865
 40
0.781249999999865
 40
0.7968749999998775
 40
0.7968749999998775
 40
0.81249999999989
 40
0.81249999999989
 40
0.8437499999999073
 40
0.8437499999999073
 40
0.8749999999999246
 40
0.8749999999999246
 40
0.8906249999999404
 40
0.8906249999999404
 40
0.9062499999999561
 40
0.9062499999999561
 40
0.9374999999999707
 40
0.9374999999999707
 40
0.9687499999999853
 40
0.9687499999999853
 40
1.0
 40
1.0
 40
1.0
 40
1.0
 10
179.549362092893
 20
188.0165050547689
 30
0.0
 10
179.549362092893
 20
187.9605328943584
 30
0.0
 10
179.5431579217756
 20
187.9074952973029
 30
0.0
 10
179.5251018578345
 20
187.8322048203547
 30
0.0
 10
179.5176161273515
 20
187.8078256576523
 30
0.0
 10
179.499701425276
 20
187.7605601261281
 30
0.0
 10
179.4892487033402
 20
187.7376809122906
 30
0.0
 10
179.45428283231
 20
187.6728652375146
 30
0.0
 10
179.42600880388
 20
187.6341552023144
 30
0.0
 10
179.3767167845027
 20
187.5830119994378
 30
0.0
 10
179.3590274100258
 20
187.5670524713256
 30
0.0
 10
179.3219390687115
 20
187.5380458594436
 30
0.0
 10
179.3025617946118
 20
187.5249860258664
 30
0.0
 10
179.2421236570844
 20
187.4900989108629
 30
0.0
 10
179.1987794486186
 20
187.4725188051063
 30
0.0
 10
179.1064112945406
 20
187.449573066293
 30
0.0
 10
179.058610254638
 20
187.4445597169066
 30
0.0
 10
178.9856518907087
 20
187.4467880266797
 30
0.0
 10
178.961082238455
 20
187.4491572685096
 30
0.0
 10
178.9114824975361
 20
187.4572662201695
 30
0.0
 10
178.8863094686848
 20
187.4630581492773
 30
0.0
 10
178.8116591362633
 20
187.4853005966136
 30
0.0
 10
178.7628107940127
 20
187.5065331996942
 30
0.0
 10
178.6670645727217
 20
187.5617152476356
 30
0.0
 10
178.6198031837089
 20
187.5961179914173
 30
0.0
 10
178.5312173934177
 20
187.6748925970836
 30
0.0
 10
178.4894146820529
 20
187.7194268871437
 30
0.0
 10
178.4301631459289
 20
187.7938802009598
 30
0.0
 10
178.4110330751641
 20
187.819954345443
 30
0.0
 10
178.3746722040151
 20
187.8734955907364
 30
0.0
 10
178.357331413781
 20
187.901096174368
 30
0.0
 10
178.324210114744
 20
187.9578928402396
 30
0.0
 10
178.3084297947633
 20
187.9870890030161
 30
0.0
 10
178.2783499149997
 20
188.0470581635389
 30
0.0
 10
178.2639826733835
 20
188.0779997906755
 30
0.0
 10
178.2237268974519
 20
188.1715579705677
 30
0.0
 10
178.2005272271957
 20
188.2350457489564
 30
0.0
 10
178.1604668806849
 20
188.363912569717
 30
0.0
 10
178.1435214115568
 20
188.4299297090874
 30
0.0
 10
178.116841021925
 20
188.5583138025151
 30
0.0
 10
178.1068958301618
 20
188.6211603116244
 30
0.0
 10
178.0968164915754
 20
188.713195349952
 30
0.0
 10
178.0942681417973
 20
188.7436532303158
 30
0.0
 10
178.0909092811863
 20
188.802490022518
 30
0.0
 10
178.0900778117186
 20
188.8309843964574
 30
0.0
 10
178.0900559407939
 20
188.9137457327522
 30
0.0
 10
178.093322199129
 20
188.9654504830569
 30
0.0
 10
178.1067648269792
 20
189.0608458881806
 30
0.0
 10
178.1167310663384
 20
189.103195812476
 30
0.0
 10
178.1366954172626
 20
189.1592863592094
 30
0.0
 10
178.1441939653658
 20
189.1767355269912
 30
0.0
 10
178.1610021128986
 20
189.2091357758523
 30
0.0
 10
178.1702743772158
 20
189.2239841438078
 30
0.0
 10
178.2003579826554
 20
189.2640005254569
 30
0.0
 10
178.2235573792922
 20
189.284979771506
 30
0.0
 10
178.2637105234624
 20
189.3082491287949
 30
0.0
 10
178.2780731762276
 20
189.3146437216892
 30
0.0
 10
178.3081841153445
 20
189.3244521816114
 30
0.0
 10
178.3239645747334
 20
189.3279037683575
 30
0.0
 10
178.373585502181
 20
189.3340640618767
 30
0.0
 10
178.4096835186788
 20
189.3326235847958
 30
0.0
 10
178.4889338710067
 20
189.3184226956099
 30
0.0
 10
178.5308220501407
 20
189.3058777321848
 30
0.0
 10
178.5970313807516
 20
189.2793897560524
 30
0.0
 10
178.6196779379084
 20
189.2692689207355
 30
0.0
 10
178.666183600674
 20
189.2463907486535
 30
0.0
 10
178.6901509764818
 20
189.2335618116249
 30
0.0
 10
178.7623019808161
 20
189.1919318542237
 30
0.0
 10
178.8111692471842
 20
189.1598461810641
 30
0.0
 10
178.8855024515635
 20
189.105246349564
 30
0.0
 10
178.9105655058372
 20
189.08586510052
 30
0.0
 10
178.960462098092
 20
189.0452638071248
 30
0.0
 10
178.9851383821878
 20
189.0241816359087
 30
0.0
 10
179.0583020692661
 20
188.9586124959883
 30
0.0
 10
179.1059398560889
 20
188.9118311835403
 30
0.0
 10
179.1983326531276
 20
188.8115769926674
 30
0.0
 10
179.241914949962
 20
188.7593340987109
 30
0.0
 10
179.3023574508208
 20
188.6783316762565
 30
0.0
 10
179.321717507727
 20
188.6508441087497
 30
0.0
 10
179.3587431764971
 20
188.5948026236975
 30
0.0
 10
179.3764741909076
 20
188.5661187713925
 30
0.0
 10
179.4258828691973
 20
188.48006680885
 30
0.0
 10
179.4541331329067
 20
188.4222710190912
 30
0.0
 10
179.500654331197
 20
188.305334033743
 30
0.0
 10
179.5189452537397
 20
188.2456871166566
 30
0.0
 10
179.5431553393147
 20
188.1295112191572
 30
0.0
 10
179.549362092893
 20
188.0724772151795
 30
0.0
 10
179.549362092893
 20
188.0165050547689
 30
0.0
  0
SPLINE
  5
162
330
1F
100
AcDbEntity
  8
0
  6
Continuous
 62
     7
370
    25
100
AcDbSpline
210
0.0
220
0.0
230
1.0
 70
    11
 71
     3
 72
    92
 73
    88
 74
     0
 42
0.000000001
 43
0.00000001
 40
0.0
 40
0.0
 40
0.0
 40
0.0
 40
0.0312500000000353
 40
0.0312500000000353
 40
0.0468750000000529
 40
0.0468750000000529
 40
0.0625000000000706
 40
0.0625000000000706
 40
0.0937500000000871
 40
0.0937500000000871
 40
0.1093750000000954
 40
0.1093750000000954
 40
0.1250000000001037
 40
0.1250000000001037
 40
0.1562500000001346
 40
0.1562500000001346
 40
0.1875000000001656
 40
0.1875000000001656
 40
0.2031250000001771
 40
0.2031250000001771
 40
0.2187500000001886
 40
0.2187500000001886
 40
0.2500000000002117
 40
0.2500000000002117
 40
0.2812500000002348
 40
0.2812500000002348
 40
0.3125000000002578
 40
0.3125000000002578
 40
0.3281250000002655
 40
0.3281250000002655
 40
0.3437500000002731
 40
0.3437500000002731
 40
0.3593750000002808
 40
0.3593750000002808
 40
0.3750000000002884
 40
0.3750000000002884
 40
0.4062500000003036
 40
0.4062500000003036
 40
0.4375000000003188
 40
0.4375000000003188
 40
0.468750000000334
 40
0.468750000000334
 40
0.4843750000003416
 40
0.4843750000003416
 40
0.5000000000003492
 40
0.5000000000003492
 40
0.5312500000003645
 40
0.5312500000003645
 40
0.5625000000003797
 40
0.5625000000003797
 40
0.5781250000003779
 40
0.5781250000003779
 40
0.5937500000003761
 40
0.5937500000003761
 40
0.6250000000003556
 40
0.6250000000003556
 40
0.6406250000003383
 40
0.6406250000003383
 40
0.656250000000321
 40
0.656250000000321
 40
0.6875000000002863
 40
0.6875000000002863
 40
0.7187500000002517
 40
0.7187500000002517
 40
0.7343750000002324
 40
0.7343750000002324
 40
0.750000000000213
 40
0.750000000000213
 40
0.7812500000001743
 40
0.7812500000001743
 40
0.7968750000001549
 40
0.7968750000001549
 40
0.8125000000001354
 40
0.8125000000001354
 40
0.8437500000001046
 40
0.8437500000001046
 40
0.8750000000000736
 40
0.8750000000000736
 40
0.8906250000000582
 40
0.8906250000000582
 40
0.9062500000000427
 40
0.9062500000000427
 40
0.9375000000000285
 40
0.9375000000000285
 40
0.9687500000000143
 40
0.9687500000000143
 40
1.0
 40
1.0
 40
1.0
 40
1.0
 10
179.549362092893
 20
182.312967483747
 30
0.0
 10
179.549362092893
 20
182.2569953233364
 30
0.0
 10
179.5431579217756
 20
182.2039577262809
 30
0.0
 10
179.5251018578345
 20
182.1286672493327
 30
0.0
 10
179.5176161273515
 20
182.1042880866304
 30
0.0
 10
179.499701425276
 20
182.0570225551062
 30
0.0
 10
179.4892487033402
 20
182.0341433412686
 30
0.0
 10
179.45428283231
 20
181.9693276664928
 30
0.0
 10
179.42600880388
 20
181.9306176312924
 30
0.0
 10
179.3767167845027
 20
181.8794744284158
 30
0.0
 10
179.3590274100258
 20
181.8635149003036
 30
0.0
 10
179.3219390687115
 20
181.8345082884215
 30
0.0
 10
179.3025617946118
 20
181.8214484548444
 30
0.0
 10
179.2421236570844
 20
181.786561339841
 30
0.0
 10
179.1987794486186
 20
181.7689812340843
 30
0.0
 10
179.1064112945406
 20
181.746035495271
 30
0.0
 10
179.058610254638
 20
181.7410221458847
 30
0.0
 10
178.9856518907087
 20
181.7432504556576
 30
0.0
 10
178.961082238455
 20
181.7456196974877
 30
0.0
 10
178.9114824975361
 20
181.7537286491475
 30
0.0
 10
178.8863094686848
 20
181.7595205782553
 30
0.0
 10
178.8116591362633
 20
181.7817630255915
 30
0.0
 10
178.7628107940127
 20
181.8029956286722
 30
0.0
 10
178.6670645727217
 20
181.8581776766136
 30
0.0
 10
178.6198031837089
 20
181.8925804203953
 30
0.0
 10
178.5312173934177
 20
181.9713550260616
 30
0.0
 10
178.4894146820529
 20
182.0158893161218
 30
0.0
 10
178.4301631459289
 20
182.0903426299378
 30
0.0
 10
178.4110330751641
 20
182.116416774421
 30
0.0
 10
178.3746722040151
 20
182.1699580197143
 30
0.0
 10
178.357331413781
 20
182.1975586033459
 30
0.0
 10
178.324210114744
 20
182.2543552692176
 30
0.0
 10
178.3084297947633
 20
182.2835514319941
 30
0.0
 10
178.2783499149997
 20
182.3435205925169
 30
0.0
 10
178.2639826733835
 20
182.3744622196535
 30
0.0
 10
178.2237268974519
 20
182.4680203995457
 30
0.0
 10
178.2005272271957
 20
182.5315081779345
 30
0.0
 10
178.1604668806849
 20
182.660374998695
 30
0.0
 10
178.1435214115568
 20
182.7263921380657
 30
0.0
 10
178.116841021925
 20
182.8547762314931
 30
0.0
 10
178.1068958301618
 20
182.9176227406024
 30
0.0
 10
178.0968164915754
 20
183.00965777893
 30
0.0
 10
178.0942681417973
 20
183.0401156592939
 30
0.0
 10
178.0909092811863
 20
183.098952451496
 30
0.0
 10
178.0900778117186
 20
183.1274468254354
 30
0.0
 10
178.0900559407939
 20
183.2102081617303
 30
0.0
 10
178.093322199129
 20
183.2619129120348
 30
0.0
 10
178.1067648269792
 20
183.3573083171587
 30
0.0
 10
178.1167310663384
 20
183.399658241454
 30
0.0
 10
178.1366954172626
 20
183.4557487881874
 30
0.0
 10
178.1441939653658
 20
183.4731979559691
 30
0.0
 10
178.1610021128986
 20
183.5055982048302
 30
0.0
 10
178.1702743772158
 20
183.5204465727858
 30
0.0
 10
178.2003579826554
 20
183.5604629544349
 30
0.0
 10
178.2235573792922
 20
183.5814422004841
 30
0.0
 10
178.2637105234624
 20
183.6047115577729
 30
0.0
 10
178.2780731762276
 20
183.6111061506672
 30
0.0
 10
178.3081841153445
 20
183.6209146105895
 30
0.0
 10
178.3239645747334
 20
183.6243661973355
 30
0.0
 10
178.373585502181
 20
183.6305264908546
 30
0.0
 10
178.4096835186788
 20
183.6290860137738
 30
0.0
 10
178.4889338710067
 20
183.6148851245879
 30
0.0
 10
178.5308220501407
 20
183.6023401611629
 30
0.0
 10
178.5970313807516
 20
183.5758521850303
 30
0.0
 10
178.6196779379084
 20
183.5657313497136
 30
0.0
 10
178.666183600674
 20
183.5428531776315
 30
0.0
 10
178.6901509764818
 20
183.530024240603
 30
0.0
 10
178.7623019808161
 20
183.4883942832019
 30
0.0
 10
178.8111692471842
 20
183.4563086100419
 30
0.0
 10
178.8855024515634
 20
183.401708778542
 30
0.0
 10
178.9105655058372
 20
183.3823275294978
 30
0.0
 10
178.960462098092
 20
183.3417262361027
 30
0.0
 10
178.9851383821878
 20
183.3206440648867
 30
0.0
 10
179.0583020692661
 20
183.2550749249662
 30
0.0
 10
179.1059398560889
 20
183.2082936125183
 30
0.0
 10
179.1983326531276
 20
183.1080394216455
 30
0.0
 10
179.241914949962
 20
183.0557965276888
 30
0.0
 10
179.3023574508208
 20
182.9747941052345
 30
0.0
 10
179.321717507727
 20
182.9473065377278
 30
0.0
 10
179.3587431764971
 20
182.8912650526755
 30
0.0
 10
179.3764741909077
 20
182.8625812003705
 30
0.0
 10
179.4258828691973
 20
182.776529237828
 30
0.0
 10
179.4541331329067
 20
182.7187334480691
 30
0.0
 10
179.500654331197
 20
182.601796462721
 30
0.0
 10
179.5189452537397
 20
182.5421495456345
 30
0.0
 10
179.5431553393147
 20
182.4259736481352
 30
0.0
 10
179.549362092893
 20
182.3689396441574
 30
0.0
 10
179.549362092893
 20
182.3129674837469
 30
0.0
  0
ARC
  5
163
330
1F
100
AcDbEntity
  8
0
  6
Continuous
 62
     7
370
    25
100
AcDbCircle
 10
181.296333
 20
196.57016
 30
0.0
 40
5.401916226703885
100
AcDbArc
 50
264.755749
 51
274.87169
  0
ARC
  5
164
330
1F
100
AcDbEntity
  8
0
  6
Continuous
 62
     7
370
    25
100
AcDbCircle
 10
181.296338
 20
189.385168
 30
0.0
 40
5.403458991620186
100
AcDbArc
 50
85.129758
 51
95.242803
  0
ELLIPSE
  5
165
330
1F
100
AcDbEntity
  8
0
  6
Continuous
 62
     7
370
    25
100
AcDbEllipse
 10
181.296293
 20
21.742685
 30
0.0
 11
3.135629983316961
 21
1.810454896897919
 31
0.0
210
0.0
220
0.0
230
1.0
 40
0.00007
 41
0.0
 42
6.283185307179586
  0
SPLINE
  5
166
330
1F
100
AcDbEntity
  8
0
  6
Continuous
 62
     7
370
    25
100
AcDbSpline
210
0.0
220
0.0
230
1.0
 70
     8
 71
     3
 72
    14
 73
    10
 74
     0
 42
0.000000001
 43
0.00000001
 40
0.0
 40
0.0
 40
0.0
 40
0.0
 40
0.1136774676897174
 40
0.2772824096210357
 40
0.4346791975092076
 40
0.5941793202137668
 40
0.761007281481516
 40
0.930003786487893
 40
1.0
 40
1.0
 40
1.0
 40
1.0
 10
179.4357555689812
 20
181.9699794947314
 30
0.0
 10
179.3781386433805
 20
181.9646824718998
 30
0.0
 10
179.2375992709773
 20
181.9517619584118
 30
0.0
 10
179.0107729506653
 20
182.0670273461762
 30
0.0
 10
178.7977247122508
 20
182.2795357670421
 30
0.0
 10
178.632934201337
 20
182.5704914289151
 30
0.0
 10
178.5253514186529
 20
182.9026994398131
 30
0.0
 10
178.474222294677
 20
183.1857810002394
 30
0.0
 10
178.4781772299742
 20
183.318269513143
 30
0.0
 10
178.4793355518562
 20
183.3570727632778
 30
0.0
  0
LWPOLYLINE
  5
167
330
1F
100
AcDbEntity
  8
0
  6
Continuous
 62
     7
370
    25
100
AcDbPolyline
 90
       25
 70
   128
 43
0.0
 10
180.914015
 20
189.667476
 10
181.02087
 20
189.620143
 10
181.145304
 20
189.590388
 10
181.278838
 20
189.580239
 10
181.412373
 20
189.590388
 10
181.536807
 20
189.620143
 10
181.643661
 20
189.667476
 10
181.725653
 20
189.729162
 10
181.777196
 20
189.800996
 10
181.794776
 20
189.878084
 10
181.777196
 20
189.955172
 10
181.725653
 20
190.027006
 10
181.643661
 20
190.088691
 10
181.536807
 20
190.136025
 10
181.412373
 20
190.165779
 10
181.278838
 20
190.175928
 10
181.145304
 20
190.165779
 10
181.02087
 20
190.136025
 10
180.914015
 20
190.088691
 10
180.832023
 20
190.027006
 10
180.780481
 20
189.955172
 10
180.762901
 20
189.878084
 10
180.780481
 20
189.800996
 10
180.832023
 20
189.729162
 10
180.914015
 20
189.667476
  0
LWPOLYLINE
  5
168
330
1F
100
AcDbEntity
  8
0
  6
Continuous
 62
     7
370
    25
100
AcDbPolyline
 90
       25
 70
   128
 43
0.0
 10
187.200195
 20
193.29641
 10
187.307049
 20
193.249077
 10
187.431483
 20
193.219322
 10
187.565018
 20
193.209173
 10
187.698552
 20
193.219322
 10
187.822986
 20
193.249077
 10
187.92984
 20
193.29641
 10
188.011833
 20
193.358096
 10
188.063375
 20
193.42993
 10
188.080955
 20
193.507018
 10
188.063375
 20
193.584106
 10
188.011833
 20
193.65594
 10
187.92984
 20
193.717626
 10
187.822986
 20
193.764959
 10
187.698552
 20
193.794713
 10
187.565018
 20
193.804862
 10
187.431483
 20
193.794713
 10
187.307049
 20
193.764959
 10
187.200195
 20
193.717626
 10
187.118203
 20
193.65594
 10
187.06666
 20
193.584106
 10
187.04908
 20
193.507018
 10
187.06666
 20
193.42993
 10
187.118203
 20
193.358096
 10
187.200195
 20
193.29641
  0
LINE
  5
169
330
1F
100
AcDbEntity
  8
0
  6
Continuous
 62
     7
370
    25
100
AcDbLine
 10
180.829825
 20
198.432
 30
0.0
 11
172.747595
 21
193.766227
 31
0.0
  0
ARC
  5
16A
330
1F
100
AcDbEntity
  8
0
  6
Continuous
 62
     7
370
    25
100
AcDbCircle
 10
181.278838
 20
197.565408
 30
0.0
 40
0.9760089115241999
100
AcDbArc
 50
62.609672
 51
117.390328
  0
LINE
  5
16B
330
1F
100
AcDbEntity
  8
0
  6
Continuous
 62
     7
370
    25
100
AcDbLine
 10
189.810082
 20
193.766227
 30
0.0
 11
181.727851
 21
198.432
 31
0.0
  0
ARC
  5
16C
330
1F
100
AcDbEntity
  8
0
  6
Continuous
 62
     7
370
    25
100
AcDbCircle
 10
189.711703
 20
193.507018
 30
0.0
 40
0.2772507261897957
100
AcDbArc
 50
290.783421
 51
69.216579
  0
LINE
  5
16D
330
1F
100
AcDbEntity
  8
0
  6
Continuous
 62
     7
370
    25
100
AcDbLine
 10
181.727851
 20
188.582036
 30
0.0
 11
189.810082
 21
193.247808
 31
0.0
  0
ARC
  5
16E
330
1F
100
AcDbEntity
  8
0
  6
Continuous
 62
     7
370
    25
100
AcDbCircle
 10
181.278838
 20
189.448627
 30
0.0
 40
0.9760089115241877
100
AcDbArc
 50
242.609672
 51
297.390328
  0
LINE
  5
16F
330
1F
100
AcDbEntity
  8
0
  6
Continuous
 62
     7
370
    25
100
AcDbLine
 10
172.747595
 20
193.247808
 30
0.0
 11
180.829825
 21
188.582036
 31
0.0
  0
ARC
  5
170
330
1F
100
AcDbEntity
  8
0
  6
Continuous
 62
     7
370
    25
100
AcDbCircle
 10
172.845974
 20
193.507018
 30
0.0
 40
0.2772507261898259
100
AcDbArc
 50
110.783421
 51
249.216579
  0
LWPOLYLINE
  5
171
330
1F
100
AcDbEntity
  8
0
  6
Continuous
 62
     7
370
    25
100
AcDbPolyline
 90
       25
 70
   128
 43
0.0
 10
180.914015
 20
196.925344
 10
181.02087
 20
196.878011
 10
181.145304
 20
196.848256
 10
181.278838
 20
196.838107
 10
181.412373
 20
196.848256
 10
181.536807
 20
196.878011
 10
181.643661
 20
196.925344
 10
181.725653
 20
196.98703
 10
181.777196
 20
197.058864
 10
181.794776
 20
197.135952
 10
181.777196
 20
197.21304
 10
181.725653
 20
197.284874
 10
181.643661
 20
197.34656
 10
181.536807
 20
197.393893
 10
181.412373
 20
197.423647
 10
181.278838
 20
197.433796
 10
181.145304
 20
197.423647
 10
181.02087
 20
197.393893
 10
180.914015
 20
197.34656
 10
180.832023
 20
197.284874
 10
180.780481
 20
197.21304
 10
180.762901
 20
197.135952
 10
180.780481
 20
197.058864
 10
180.832023
 20
196.98703
 10
180.914015
 20
196.925344
  0
LWPOLYLINE
  5
172
330
1F
100
AcDbEntity
  8
0
  6
Continuous
 62
     7
370
    25
100
AcDbPolyline
 90
       25
 70
   128
 43
0.0
 10
174.627836
 20
193.29641
 10
174.73469
 20
193.249077
 10
174.859125
 20
193.219322
 10
174.992659
 20
193.209173
 10
175.126193
 20
193.219322
 10
175.250628
 20
193.249077
 10
175.357482
 20
193.29641
 10
175.439474
 20
193.358096
 10
175.491016
 20
193.42993
 10
175.508596
 20
193.507018
 10
175.491016
 20
193.584106
 10
175.439474
 20
193.65594
 10
175.357482
 20
193.717626
 10
175.250628
 20
193.764959
 10
175.126193
 20
193.794713
 10
174.992659
 20
193.804862
 10
174.859125
 20
193.794713
 10
174.73469
 20
193.764959
 10
174.627836
 20
193.717626
 10
174.545844
 20
193.65594
 10
174.494302
 20
193.584106
 10
174.476721
 20
193.507018
 10
174.494302
 20
193.42993
 10
174.545844
 20
193.358096
 10
174.627836
 20
193.29641
  0
LWPOLYLINE
  5
173
330
1F
100
AcDbEntity
  8
0
  6
Continuous
 62
     7
370
    25
100
AcDbPolyline
 90
       19
 70
   128
 43
0.0
 10
177.911242
 20
195.19188
 10
178.001567
 20
195.155369
 10
178.108077
 20
195.138893
 10
178.217924
 20
195.144441
 10
178.317859
 20
195.171343
 10
178.395829
 20
195.216355
 10
178.44243
 20
195.274046
 10
178.45204
 20
195.337459
 10
178.423501
 20
195.398946
 10
178.360255
 20
195.45109
 10
178.26993
 20
195.487601
 10
178.163421
 20
195.504076
 10
178.053574
 20
195.498528
 10
177.953638
 20
195.471626
 10
177.875668
 20
195.426615
 10
177.829067
 20
195.368923
 10
177.819457
 20
195.30551
 10
177.847996
 20
195.244024
 10
177.911242
 20
195.19188
  0
LWPOLYLINE
  5
174
330
1F
100
AcDbEntity
  8
0
  6
Continuous
 62
     7
370
    25
100
AcDbPolyline
 90
       19
 70
   128
 43
0.0
 10
184.197422
 20
195.19188
 10
184.287747
 20
195.155369
 10
184.394256
 20
195.138893
 10
184.504103
 20
195.144441
 10
184.604038
 20
195.171343
 10
184.682009
 20
195.216355
 10
184.728609
 20
195.274046
 10
184.73822
 20
195.337459
 10
184.709681
 20
195.398946
 10
184.646434
 20
195.45109
 10
184.556109
 20
195.487601
 10
184.4496
 20
195.504076
 10
184.339753
 20
195.498528
 10
184.239817
 20
195.471626
 10
184.161847
 20
195.426615
 10
184.115246
 20
195.368923
 10
184.105636
 20
195.30551
 10
184.134175
 20
195.244024
 10
184.197422
 20
195.19188
  0
LWPOLYLINE
  5
175
330
1F
100
AcDbEntity
  8
0
  6
Continuous
 62
     7
370
    25
100
AcDbPolyline
 90
       19
 70
   128
 43
0.0
 10
184.197422
 20
191.562946
 10
184.287747
 20
191.526435
 10
184.394256
 20
191.509959
 10
184.504103
 20
191.515507
 10
184.604038
 20
191.542409
 10
184.682009
 20
191.587421
 10
184.728609
 20
191.645112
 10
184.73822
 20
191.708525
 10
184.709681
 20
191.770012
 10
184.646434
 20
191.822156
 10
184.556109
 20
191.858667
 10
184.4496
 20
191.875142
 10
184.339753
 20
191.869594
 10
184.239817
 20
191.842692
 10
184.161847
 20
191.797681
 10
184.115246
 20
191.739989
 10
184.105636
 20
191.676576
 10
184.134175
 20
191.61509
 10
184.197422
 20
191.562946
  0
LWPOLYLINE
  5
176
330
1F
100
AcDbEntity
  8
0
  6
Continuous
 62
     7
370
    25
100
AcDbPolyline
 90
       19
 70
   128
 43
0.0
 10
177.911242
 20
191.562946
 10
178.001567
 20
191.526435
 10
178.108077
 20
191.509959
 10
178.217924
 20
191.515507
 10
178.317859
 20
191.542409
 10
178.395829
 20
191.587421
 10
178.44243
 20
191.645112
 10
178.45204
 20
191.708525
 10
178.423501
 20
191.770012
 10
178.360255
 20
191.822156
 10
178.26993
 20
191.858667
 10
178.163421
 20
191.875142
 10
178.053574
 20
191.869594
 10
177.953638
 20
191.842692
 10
177.875668
 20
191.797681
 10
177.829067
 20
191.739989
 10
177.819457
 20
191.676576
 10
177.847996
 20
191.61509
 10
177.911242
 20
191.562946
  0
LINE
  5
177
330
1F
100
AcDbEntity
  8
0
  6
Continuous
 62
     7
370
    25
100
AcDbLine
 10
180.802588
 20
196.073062
 30
0.0
 11
180.802588
 21
194.240173
 31
0.0
  0
LWPOLYLINE
  5
178
330
1F
100
AcDbEntity
  8
0
  6
Continuous
 62
     7
370
    25
100
AcDbPolyline
 90
       12
 70
   128
 43
0.0
 10
180.802588
 20
194.240173
 10
180.82188
 20
194.162716
 10
180.878191
 20
194.091533
 10
180.966961
 20
194.032392
 10
181.080997
 20
193.990085
 10
181.211061
 20
193.968038
 10
181.346616
 20
193.968038
 10
181.47668
 20
193.990085
 10
181.590716
 20
194.032392
 10
181.679485
 20
194.091533
 10
181.735797
 20
194.162716
 10
181.755088
 20
194.240173
  0
LINE
  5
179
330
1F
100
AcDbEntity
  8
0
  6
Continuous
 62
     7
370
    25
100
AcDbLine
 10
181.755088
 20
194.240173
 30
0.0
 11
181.755088
 21
196.073062
 31
0.0
  0
LWPOLYLINE
  5
17A
330
1F
100
AcDbEntity
  8
0
  6
Continuous
 62
     7
370
    25
100
AcDbPolyline
 90
       12
 70
   128
 43
0.0
 10
181.755088
 20
196.073062
 10
181.735797
 20
196.150519
 10
181.679485
 20
196.221702
 10
181.590716
 20
196.280842
 10
181.47668
 20
196.32315
 10
181.346616
 20
196.345197
 10
181.211061
 20
196.345197
 10
181.080997
 20
196.32315
 10
180.966961
 20
196.280842
 10
180.878191
 20
196.221702
 10
180.82188
 20
196.150519
 10
180.802588
 20
196.073062
  0
LINE
  5
17B
330
1F
100
AcDbEntity
  8
0
  6
Continuous
 62
     7
370
    25
100
AcDbLine
 10
181.755088
 20
190.940974
 30
0.0
 11
181.755088
 21
192.773862
 31
0.0
  0
LWPOLYLINE
  5
17C
330
1F
100
AcDbEntity
  8
0
  6
Continuous
 62
     7
370
    25
100
AcDbPolyline
 90
       12
 70
   128
 43
0.0
 10
181.755088
 20
192.773862
 10
181.735797
 20
192.85132
 10
181.679485
 20
192.922503
 10
181.590716
 20
192.981643
 10
181.47668
 20
193.02395
 10
181.346616
 20
193.045997
 10
181.211061
 20
193.045997
 10
181.080997
 20
193.02395
 10
180.966961
 20
192.981643
 10
180.878191
 20
192.922503
 10
180.82188
 20
192.85132
 10
180.802588
 20
192.773862
  0
LINE
  5
17D
330
1F
100
AcDbEntity
  8
0
  6
Continuous
 62
     7
370
    25
100
AcDbLine
 10
180.802588
 20
192.773862
 30
0.0
 11
180.802588
 21
190.940974
 31
0.0
  0
LWPOLYLINE
  5
17E
330
1F
100
AcDbEntity
  8
0
  6
Continuous
 62
     7
370
    25
100
AcDbPolyline
 90
       12
 70
   128
 43
0.0
 10
180.802588
 20
190.940974
 10
180.82188
 20
190.863516
 10
180.878191
 20
190.792334
 10
180.966961
 20
190.733193
 10
181.080997
 20
190.690886
 10
181.211061
 20
190.668839
 10
181.346616
 20
190.668839
 10
181.47668
 20
190.690886
 10
181.590716
 20
190.733193
 10
181.679485
 20
190.792334
 10
181.735797
 20
190.863516
 10
181.755088
 20
190.940974
  0
LINE
  5
17F
330
1F
100
AcDbEntity
  8
0
  6
Continuous
 62
     7
370
    25
100
AcDbLine
 10
180.829825
 20
188.582036
 30
0.0
 11
180.829825
 21
188.063532
 31
0.0
  0
LINE
  5
180
330
1F
100
AcDbEntity
  8
0
  6
Continuous
 62
     7
370
    25
100
AcDbLine
 10
181.727851
 20
188.582036
 30
0.0
 11
181.727851
 21
188.063532
 31
0.0
  0
ARC
  5
181
330
1F
100
AcDbEntity
  8
0
  6
Continuous
 62
     7
370
    25
100
AcDbCircle
 10
181.278838
 20
188.930124
 30
0.0
 40
0.9760089115240616
100
AcDbArc
 50
242.609672
 51
297.390328
  0
LINE
  5
182
330
1F
100
AcDbEntity
  8
0
  6
Continuous
 62
     7
370
    25
100
AcDbLine
 10
189.810082
 20
193.247808
 30
0.0
 11
189.810082
 21
192.729305
 31
0.0
  0
LINE
  5
183
330
1F
100
AcDbEntity
  8
0
  6
Continuous
 62
     7
370
    25
100
AcDbLine
 10
181.727851
 20
188.063532
 30
0.0
 11
189.810082
 21
192.729305
 31
0.0
  0
LINE
  5
184
330
1F
100
AcDbEntity
  8
0
  6
Continuous
 62
     7
370
    25
100
AcDbLine
 10
172.747595
 20
193.247808
 30
0.0
 11
172.747595
 21
192.729305
 31
0.0
  0
LINE
  5
185
330
1F
100
AcDbEntity
  8
0
  6
Continuous
 62
     7
370
    25
100
AcDbLine
 10
172.747595
 20
192.729305
 30
0.0
 11
180.829825
 21
188.063532
 31
0.0
  0
ARC
  5
186
330
1F
100
AcDbEntity
  8
0
  6
Continuous
 62
     7
370
    25
100
AcDbCircle
 10
181.278838
 20
188.809071
 30
0.0
 40
0.8486613476835696
100
AcDbArc
 50
72.585097
 51
107.414903
  0
LWPOLYLINE
  5
187
330
1F
100
AcDbEntity
  8
0
  6
Continuous
 62
     7
370
    25
100
AcDbPolyline
 90
       12
 70
   128
 43
0.0
 10
181.755088
 20
192.255359
 10
181.735797
 20
192.332817
 10
181.679485
 20
192.403999
 10
181.590716
 20
192.46314
 10
181.47668
 20
192.505447
 10
181.346616
 20
192.527494
 10
181.211061
 20
192.527494
 10
181.080997
 20
192.505447
 10
180.966961
 20
192.46314
 10
180.878191
 20
192.403999
 10
180.82188
 20
192.332817
 10
180.802588
 20
192.255359
  0
ARC
  5
188
330
1F
100
AcDbEntity
  8
0
  6
Continuous
 62
     7
370
    25
100
AcDbCircle
 10
174.992659
 20
192.438005
 30
0.0
 40
0.848661347694735
100
AcDbArc
 50
72.585097
 51
107.414903
  0
ARC
  5
189
330
1F
100
AcDbEntity
  8
0
  6
Continuous
 62
     7
370
    25
100
AcDbCircle
 10
187.565018
 20
192.438005
 30
0.0
 40
0.8486613476914191
100
AcDbArc
 50
72.585097
 51
107.414903
  0
ARC
  5
18A
330
1F
100
AcDbEntity
  8
0
  6
Continuous
 62
     7
370
    25
100
AcDbCircle
 10
189.678279
 20
193.020205
 30
0.0
 40
0.3193664418436796
100
AcDbArc
 50
294.374658
 51
354.305201
  0
ARC
  5
18B
330
1F
100
AcDbEntity
  8
0
  6
Continuous
 62
     7
370
    25
100
AcDbCircle
 10
172.879398
 20
193.020205
 30
0.0
 40
0.3193664418435633
100
AcDbArc
 50
185.694799
 51
245.625342
  0
LWPOLYLINE
  5
18C
330
1F
100
AcDbEntity
  8
0
  6
Continuous
 62
     7
370
    25
100
AcDbPolyline
 90
       12
 70
   128
 43
0.0
 10
181.755088
 20
195.554558
 10
181.735797
 20
195.632016
 10
181.679485
 20
195.703198
 10
181.590716
 20
195.762339
 10
181.47668
 20
195.804646
 10
181.346616
 20
195.826693
 10
181.211061
 20
195.826693
 10
181.080997
 20
195.804646
 10
180.966961
 20
195.762339
 10
180.878191
 20
195.703198
 10
180.82188
 20
195.632016
 10
180.802588
 20
195.554558
  0
ARC
  5
18D
330
1F
100
AcDbEntity
  8
0
  6
Continuous
 62
     7
370
    25
100
AcDbCircle
 10
181.278838
 20
196.066939
 30
0.0
 40
0.8486613476886959
100
AcDbArc
 50
72.585097
 51
107.414903
  0
ENDSEC
  0
SECTION
  2
OBJECTS
  0
DICTIONARY
  5
C
330
0
100
AcDbDictionary
281
     1
  3
ACAD_DETAILVIEWSTYLE
350
1C3
  3
ACAD_GROUP
350
D
  3
ACAD_IMAGE_DICT
350
1B8
  3
ACAD_LAYOUT
350
1A
  3
ACAD_MATERIAL
350
1AA
  3
ACAD_MLEADERSTYLE
350
1C0
  3
ACAD_MLINESTYLE
350
17
  3
ACAD_PLOTSETTINGS
350
19
  3
ACAD_PLOTSTYLENAME
350
E
  3
ACAD_SCALELIST
350
47
  3
ACAD_SECTIONVIEWSTYLE
350
1C4
  3
ACAD_TABLESTYLE
350
1B4
  3
ACAD_VISUALSTYLE
350
191
  3
ACDB_RECOMPOSE_DATA
350
1BF
  3
AcDbVariableDictionary
350
1C1
  3
HOST_DOC_SETTINGS
350
1B6
  3
MCS_STREAM_DICT
350
1B0
  0
SUN
  5
1B3
330
29
100
AcDbSun
 90
        1
290
     0
 63
     7
421
 16777215
 40
1.0
291
     1
 91
  2455826
 92
 54000000
292
     0
 70
     2
 71
   256
280
     1
  0
DICTIONARY
  5
1C3
102
{ACAD_REACTORS
330
C
102
}
330
C
100
AcDbDictionary
281
     1
  0
DICTIONARY
  5
D
102
{ACAD_REACTORS
330
C
102
}
330
C
100
AcDbDictionary
281
     1
  0
DICTIONARY
  5
1B8
102
{ACAD_REACTORS
330
C
102
}
330
C
100
AcDbDictionary
281
     1
  0
DICTIONARY
  5
1A
102
{ACAD_REACTORS
330
C
102
}
330
C
100
AcDbDictionary
281
     1
  3
Layout1
350
1E
  3
Layout2
350
26
  3
Model
350
22
  0
DICTIONARY
  5
1AA
102
{ACAD_REACTORS
330
C
102
}
330
C
100
AcDbDictionary
281
     1
  3
ByBlock
350
1AC
  3
ByLayer
350
1AB
  3
Global
350
1AD
  0
DICTIONARY
  5
1C0
102
{ACAD_REACTORS
330
C
102
}
330
C
100
AcDbDictionary
281
     1
  0
DICTIONARY
  5
17
102
{ACAD_REACTORS
330
C
102
}
330
C
100
AcDbDictionary
281
     1
  3
Standard
350
18
  0
DICTIONARY
  5
19
102
{ACAD_REACTORS
330
C
102
}
330
C
100
AcDbDictionary
281
     1
  0
ACDBDICTIONARYWDFLT
  5
E
102
{ACAD_REACTORS
330
C
102
}
330
C
100
AcDbDictionary
281
     1
  3
Normal
350
F
100
AcDbDictionaryWithDefault
340
F
  0
DICTIONARY
  5
47
102
{ACAD_REACTORS
330
C
102
}
330
C
100
AcDbDictionary
281
     1
  3
A0
350
48
  3
A1
350
49
  3
A2
350
4A
  3
A3
350
4B
  3
A4
350
4C
  3
A5
350
4D
  3
A6
350
4E
  3
A7
350
4F
  3
A8
350
50
  3
A9
350
51
  3
B0
350
52
  3
B1
350
53
  3
B2
350
54
  3
B3
350
55
  3
B4
350
56
  3
B5
350
57
  3
B6
350
58
  0
DICTIONARY
  5
1C4
102
{ACAD_REACTORS
330
C
102
}
330
C
100
AcDbDictionary
281
     1
  0
DICTIONARY
  5
1B4
102
{ACAD_REACTORS
330
C
102
}
330
C
100
AcDbDictionary
281
     1
  3
Standard
350
1B5
  0
DICTIONARY
  5
191
102
{ACAD_REACTORS
330
C
102
}
330
C
100
AcDbDictionary
281
     1
  3
2dWireframe
350
196
  3
Basic
350
199
  3
Brighten
350
19D
  3
ColorChange
350
1A1
  3
Conceptual
350
19B
  3
Dim
350
19C
  3
EdgeColorOff
350
1A4
  3
Facepattern
350
1A0
  3
Flat
350
192
  3
FlatWithEdges
350
193
  3
Gouraud
350
194
  3
GouraudWithEdges
350
195
  3
Hidden
350
198
  3
JitterOff
350
1A2
  3
Linepattern
350
19F
  3
OverhangOff
350
1A3
  3
Realistic
350
19A
  3
Shaded
350
1A9
  3
Shaded with edges
350
1A8
  3
Shades of Gray
350
1A5
  3
Sketchy
350
1A6
  3
Thicken
350
19E
  3
Wireframe
350
197
  3
X-Ray
350
1A7
  0
XRECORD
  5
1BF
102
{ACAD_REACTORS
330
C
102
}
330
C
100
AcDbXrecord
280
     1
 90
        1
330
1B5
  0
DICTIONARY
  5
1C1
102
{ACAD_REACTORS
330
C
102
}
330
C
100
AcDbDictionary
281
     1
  3
MSLTSCALE
350
1C2
  0
DICTIONARY
  5
1B6
102
{ACAD_REACTORS
330
C
102
}
330
C
100
AcDbDictionary
281
     1
  3
NCDocParameters
350
1B7
  0
DICTIONARY
  5
1B0
102
{ACAD_REACTORS
330
C
102
}
330
C
100
AcDbDictionary
281
     1
  3
MC_VERSION_DATA
350
1BB
  3
MCS_DOCUMENT_ID
350
1B1
  3
MCS_PARAMS_DATA
350
1B9
  0
LAYOUT
  5
1E
102
{ACAD_REACTORS
330
1A
102
}
330
1A
100
AcDbPlotSettings
  1

  2
none_device
  4

  6

 40
0.0
 41
0.0
 42
0.0
 43
0.0
 44
0.0
 45
0.0
 46
0.0
 47
0.0
 48
0.0
 49
0.0
140
0.0
141
0.0
142
1.0
143
1.0
 70
   688
 72
     1
 73
     0
 74
     5
  7

 75
    16
 76
     0
 77
     2
 78
   300
147
1.0
148
0.0
149
0.0
100
AcDbLayout
  1
Layout1
 70
     0
 71
     1
 10
0.0
 20
0.0
 11
420.0
 21
297.0
 12
0.0
 22
0.0
 32
0.0
 14
1.000000E+20
 24
1.000000E+20
 34
1.000000E+20
 15
-1.000000E+20
 25
-1.000000E+20
 35
-1.000000E+20
146
0.0
 13
0.0
 23
0.0
 33
0.0
 16
1.0
 26
0.0
 36
0.0
 17
0.0
 27
1.0
 37
0.0
 76
     0
330
1B
  0
LAYOUT
  5
26
102
{ACAD_REACTORS
330
1A
102
}
330
1A
100
AcDbPlotSettings
  1

  2
none_device
  4

  6

 40
0.0
 41
0.0
 42
0.0
 43
0.0
 44
0.0
 45
0.0
 46
0.0
 47
0.0
 48
0.0
 49
0.0
140
0.0
141
0.0
142
1.0
143
1.0
 70
   688
 72
     1
 73
     0
 74
     5
  7

 75
    16
 76
     0
 77
     2
 78
   300
147
1.0
148
0.0
149
0.0
100
AcDbLayout
  1
Layout2
 70
     1
 71
     2
 10
0.0
 20
0.0
 11
0.0
 21
0.0
 12
0.0
 22
0.0
 32
0.0
 14
0.0
 24
0.0
 34
0.0
 15
0.0
 25
0.0
 35
0.0
146
0.0
 13
0.0
 23
0.0
 33
0.0
 16
1.0
 26
0.0
 36
0.0
 17
0.0
 27
1.0
 37
0.0
 76
     0
330
23
  0
LAYOUT
  5
22
102
{ACAD_REACTORS
330
1A
102
}
330
1A
100
AcDbPlotSettings
  1

  2
none_device
  4
Letter_(8.50_x_11.00_Inches)
  6

 40
6.35
 41
6.35
 42
6.350005
 43
6.350005
 44
215.9
 45
279.4
 46
0.0
 47
0.0
 48
0.0
 49
0.0
140
0.0
141
0.0
142
1.0
143
1.0
 70
  1712
 72
     1
 73
     0
 74
     0
  7

 75
     0
 76
     0
 77
     2
 78
   300
147
1.0
148
0.0
149
0.0
100
AcDbLayout
  1
Model
 70
     1
 71
     0
 10
0.0
 20
0.0
 11
279.4
 21
215.9
 12
0.0
 22
0.0
 32
0.0
 14
0.0
 24
0.0
 34
0.0
 15
279.4
 25
215.9
 35
0.0
146
0.0
 13
0.0
 23
0.0
 33
0.0
 16
1.0
 26
0.0
 36
0.0
 17
0.0
 27
1.0
 37
0.0
 76
     0
330
1F
331
29
  0
MATERIAL
  5
1AC
102
{ACAD_REACTORS
330
1AA
102
}
330
1AA
100
AcDbMaterial
  1
ByBlock
 72
     1
 94
      127
  0
MATERIAL
  5
1AB
102
{ACAD_REACTORS
330
1AA
102
}
330
1AA
100
AcDbMaterial
  1
ByLayer
 72
     1
 94
      127
  0
MATERIAL
  5
1AD
102
{ACAD_REACTORS
330
1AA
102
}
330
1AA
100
AcDbMaterial
  1
Global
 72
     1
 94
      127
  0
MLINESTYLE
  5
18
102
{ACAD_REACTORS
330
17
102
}
330
17
100
AcDbMlineStyle
  2
Standard
 70
     0
  3

 62
   256
 51
90.0
 52
90.0
 71
     2
 49
0.5
 62
   256
  6
BYLAYER
 49
-0.5
 62
   256
  6
BYLAYER
  0
ACDBPLACEHOLDER
  5
F
102
{ACAD_REACTORS
330
E
102
}
330
E
  0
SCALE
  5
48
102
{ACAD_REACTORS
330
47
102
}
330
47
100
AcDbScale
 70
     0
300
1:1
140
1.0
141
1.0
290
     1
  0
SCALE
  5
49
102
{ACAD_REACTORS
330
47
102
}
330
47
100
AcDbScale
 70
     0
300
1:2
140
1.0
141
2.0
290
     0
  0
SCALE
  5
4A
102
{ACAD_REACTORS
330
47
102
}
330
47
100
AcDbScale
 70
     0
300
1:4
140
1.0
141
4.0
290
     0
  0
SCALE
  5
4B
102
{ACAD_REACTORS
330
47
102
}
330
47
100
AcDbScale
 70
     0
300
1:5
140
1.0
141
5.0
290
     0
  0
SCALE
  5
4C
102
{ACAD_REACTORS
330
47
102
}
330
47
100
AcDbScale
 70
     0
300
1:8
140
1.0
141
8.0
290
     0
  0
SCALE
  5
4D
102
{ACAD_REACTORS
330
47
102
}
330
47
100
AcDbScale
 70
     0
300
1:10
140
1.0
141
10.0
290
     0
  0
SCALE
  5
4E
102
{ACAD_REACTORS
330
47
102
}
330
47
100
AcDbScale
 70
     0
300
1:16
140
1.0
141
16.0
290
     0
  0
SCALE
  5
4F
102
{ACAD_REACTORS
330
47
102
}
330
47
100
AcDbScale
 70
     0
300
1:20
140
1.0
141
20.0
290
     0
  0
SCALE
  5
50
102
{ACAD_REACTORS
330
47
102
}
330
47
100
AcDbScale
 70
     0
300
1:30
140
1.0
141
30.0
290
     0
  0
SCALE
  5
51
102
{ACAD_REACTORS
330
47
102
}
330
47
100
AcDbScale
 70
     0
300
1:40
140
1.0
141
40.0
290
     0
  0
SCALE
  5
52
102
{ACAD_REACTORS
330
47
102
}
330
47
100
AcDbScale
 70
     0
300
1:50
140
1.0
141
50.0
290
     0
  0
SCALE
  5
53
102
{ACAD_REACTORS
330
47
102
}
330
47
100
AcDbScale
 70
     0
300
1:100
140
1.0
141
100.0
290
     0
  0
SCALE
  5
54
102
{ACAD_REACTORS
330
47
102
}
330
47
100
AcDbScale
 70
     0
300
2:1
140
2.0
141
1.0
290
     0
  0
SCALE
  5
55
102
{ACAD_REACTORS
330
47
102
}
330
47
100
AcDbScale
 70
     0
300
4:1
140
4.0
141
1.0
290
     0
  0
SCALE
  5
56
102
{ACAD_REACTORS
330
47
102
}
330
47
100
AcDbScale
 70
     0
300
8:1
140
8.0
141
1.0
290
     0
  0
SCALE
  5
57
102
{ACAD_REACTORS
330
47
102
}
330
47
100
AcDbScale
 70
     0
300
10:1
140
10.0
141
1.0
290
     0
  0
SCALE
  5
58
102
{ACAD_REACTORS
330
47
102
}
330
47
100
AcDbScale
 70
     0
300
100:1
140
100.0
141
1.0
290
     0
  0
TABLESTYLE
  5
1B5
102
{ACAD_REACTORS
330
1B4
102
}
102
{ACAD_XDICTIONARY
360
1BD
102
}
330
1B4
100
AcDbTableStyle
  3
Standard
 70
     0
 71
     8
 40
1.5
 41
1.5
280
     0
281
     0
  7
Standard
140
4.5
170
     2
 62
     0
 63
   257
283
     0
 90
        4
 91
        0
  1

274
    -2
284
     1
 64
     0
275
    -2
285
     1
 65
     0
276
    -2
286
     1
 66
     0
277
    -2
287
     1
 67
     0
278
    -2
288
     1
 68
     0
279
    -2
289
     1
 69
     0
  7
Standard
140
6.0
170
     5
 62
     0
 63
   257
283
     0
 90
        4
 91
        0
  1

274
    -2
284
     1
 64
     0
275
    -2
285
     1
 65
     0
276
    -2
286
     1
 66
     0
277
    -2
287
     1
 67
     0
278
    -2
288
     1
 68
     0
279
    -2
289
     1
 69
     0
  7
Standard
140
4.5
170
     5
 62
     0
 63
   257
283
     0
 90
        4
 91
        0
  1

274
    -2
284
     1
 64
     0
275
    -2
285
     1
 65
     0
276
    -2
286
     1
 66
     0
277
    -2
287
     1
 67
     0
278
    -2
288
     1
 68
     0
279
    -2
289
     1
 69
     0
  0
VISUALSTYLE
  5
196
102
{ACAD_REACTORS
330
191
102
}
330
191
100
AcDbVisualStyle
  2
2dWireframe
 70
     4
177
     3
291
     0
 70
    58
 90
        0
176
     1
 90
        2
176
     1
 90
        0
176
     1
 90
        0
176
     1
 40
0.6
176
     1
 40
30.0
176
     1
 62
     7
420
 16777215
176
     1
 90
        1
176
     1
 90
        4
176
     1
 62
     7
176
     1
 62
   257
176
     1
 90
        1
176
     1
 90
        1
176
     1
 40
1.0
176
     1
 90
        0
176
     1
 62
   257
176
     1
 40
1.0
176
     1
 90
        1
176
     1
 90
        6
176
     1
 90
        2
176
     1
 62
     7
176
     1
 90
        5
176
     1
 90
        0
176
     1
 90
        0
176
     1
290
     0
176
     1
 90
        1
176
     1
 40
0.0
176
     1
 90
        0
176
     1
290
     1
176
     1
290
     1
176
     1
290
     0
176
     1
290
     0
176
     1
290
     0
176
     1
290
     0
176
     1
290
     0
176
     1
290
     0
176
     1
290
     0
176
     1
 90
       50
176
     1
 40
0.0
176
     1
 40
1.0
176
     1
 90
        0
176
     1
 62
    18
420
        0
176
     1
 90
       50
176
     1
 90
        3
176
     1
 62
     5
420
      255
176
     1
290
     0
176
     1
 90
       50
176
     1
 90
       50
176
     1
 90
       50
176
     1
290
     0
176
     1
 90
       50
176
     1
 62
   256
176
     0
 40
1.0
176
     0
 90
        2
176
     1
  1
strokes_ogs.tif
176
     1
290
     0
176
     1
 40
1.0
176
     1
 40
1.0
176
     1
  0
VISUALSTYLE
  5
199
102
{ACAD_REACTORS
330
191
102
}
330
191
100
AcDbVisualStyle
  2
Basic
 70
     7
177
     3
291
     1
 70
    58
 90
        1
176
     1
 90
        0
176
     1
 90
        1
176
     1
 90
        0
176
     1
 40
0.6
176
     1
 40
30.0
176
     1
 62
     7
420
 16777215
176
     1
 90
        0
176
     1
 90
        4
176
     1
 62
     7
176
     1
 62
   257
176
     1
 90
        1
176
     1
 90
        1
176
     1
 40
1.0
176
     1
 90
        8
176
     1
 62
     7
176
     1
 40
1.0
176
     1
 90
        1
176
     1
 90
        6
176
     1
 90
        2
176
     1
 62
     7
176
     1
 90
        5
176
     1
 90
        0
176
     1
 90
        0
176
     1
290
     0
176
     1
 90
        1
176
     1
 40
0.0
176
     1
 90
        0
176
     1
290
     0
176
     1
290
     1
176
     1
290
     1
176
     1
290
     0
176
     1
290
     0
176
     1
290
     0
176
     1
290
     0
176
     1
290
     0
176
     1
290
     0
176
     1
 90
       50
176
     1
 40
0.0
176
     1
 40
1.0
176
     1
 90
        0
176
     1
 62
    18
420
        0
176
     1
 90
       50
176
     1
 90
        3
176
     1
 62
     5
420
      255
176
     1
290
     0
176
     1
 90
       50
176
     1
 90
       50
176
     1
 90
       50
176
     1
290
     0
176
     1
 90
       50
176
     1
 62
   256
176
     0
 40
1.0
176
     0
 90
        2
176
     1
  1
strokes_ogs.tif
176
     1
290
     0
176
     1
 40
1.0
176
     1
 40
1.0
176
     1
  0
VISUALSTYLE
  5
19D
102
{ACAD_REACTORS
330
191
102
}
330
191
100
AcDbVisualStyle
  2
Brighten
 70
    12
177
     3
291
     1
 70
    58
 90
        2
176
     1
 90
        2
176
     1
 90
        0
176
     1
 90
        0
176
     1
 40
0.6
176
     1
 40
30.0
176
     1
 62
     7
420
 16777215
176
     1
 90
        1
176
     1
 90
        4
176
     1
 62
     7
176
     1
 62
   257
176
     1
 90
        1
176
     1
 90
        1
176
     1
 40
1.0
176
     1
 90
        8
176
     1
 62
     7
176
     1
 40
1.0
176
     1
 90
        1
176
     1
 90
        6
176
     1
 90
        2
176
     1
 62
     7
176
     1
 90
        5
176
     1
 90
        0
176
     1
 90
        0
176
     1
290
     0
176
     1
 90
        1
176
     1
 40
50.0
176
     1
 90
        0
176
     1
290
     0
176
     1
290
     1
176
     1
290
     1
176
     1
290
     0
176
     1
290
     0
176
     1
290
     0
176
     1
290
     0
176
     1
290
     0
176
     1
290
     0
176
     1
 90
       50
176
     1
 40
0.0
176
     1
 40
1.0
176
     1
 90
        0
176
     1
 62
    18
420
        0
176
     1
 90
       50
176
     1
 90
        3
176
     1
 62
     5
420
      255
176
     1
290
     0
176
     1
 90
       50
176
     1
 90
       50
176
     1
 90
       50
176
     1
290
     0
176
     1
 90
       50
176
     1
 62
   256
176
     0
 40
1.0
176
     0
 90
        2
176
     1
  1
strokes_ogs.tif
176
     1
290
     0
176
     1
 40
1.0
176
     1
 40
1.0
176
     1
  0
VISUALSTYLE
  5
1A1
102
{ACAD_REACTORS
330
191
102
}
330
191
100
AcDbVisualStyle
  2
ColorChange
 70
    16
177
     3
291
     1
 70
    58
 90
        2
176
     1
 90
        2
176
     1
 90
        3
176
     1
 90
        0
176
     1
 40
0.6
176
     1
 40
30.0
176
     1
 62
     8
420
  8421504
176
     1
 90
        1
176
     1
 90
        4
176
     1
 62
     7
176
     1
 62
   257
176
     1
 90
        1
176
     1
 90
        1
176
     1
 40
1.0
176
     1
 90
        8
176
     1
 62
     8
420
  8421504
176
     1
 40
1.0
176
     1
 90
        1
176
     1
 90
        6
176
     1
 90
        2
176
     1
 62
     7
176
     1
 90
        5
176
     1
 90
        0
176
     1
 90
        0
176
     1
290
     0
176
     1
 90
        1
176
     1
 40
0.0
176
     1
 90
        0
176
     1
290
     0
176
     1
290
     1
176
     1
290
     1
176
     1
290
     0
176
     1
290
     0
176
     1
290
     0
176
     1
290
     0
176
     1
290
     0
176
     1
290
     0
176
     1
 90
       50
176
     1
 40
0.0
176
     1
 40
1.0
176
     1
 90
        0
176
     1
 62
    18
420
        0
176
     1
 90
       50
176
     1
 90
        3
176
     1
 62
     5
420
      255
176
     1
290
     0
176
     1
 90
       50
176
     1
 90
       50
176
     1
 90
       50
176
     1
290
     0
176
     1
 90
       50
176
     1
 62
   256
176
     0
 40
1.0
176
     0
 90
        2
176
     1
  1
strokes_ogs.tif
176
     1
290
     0
176
     1
 40
1.0
176
     1
 40
1.0
176
     1
  0
VISUALSTYLE
  5
19B
102
{ACAD_REACTORS
330
191
102
}
330
191
100
AcDbVisualStyle
  2
Conceptual
 70
     9
177
     3
291
     0
 70
    58
 90
        3
176
     1
 90
        2
176
     1
 90
        0
176
     1
 90
        0
176
     1
 40
0.6
176
     1
 40
30.0
176
     1
 62
     7
420
 16777215
176
     1
 90
        2
176
     1
 90
        2
176
     1
 62
     7
176
     1
 62
   257
176
     1
 90
        1
176
     1
 90
        1
176
     1
 40
179.0
176
     1
 90
        8
176
     1
 62
     7
176
     1
 40
1.0
176
     1
 90
        1
176
     1
 90
        6
176
     1
 90
        2
176
     1
 62
     7
176
     1
 90
        3
176
     1
 90
        0
176
     1
 90
        0
176
     1
290
     0
176
     1
 90
        1
176
     1
 40
0.0
176
     1
 90
        0
176
     1
290
     0
176
     1
290
     1
176
     1
290
     1
176
     1
290
     0
176
     1
290
     0
176
     1
290
     0
176
     1
290
     0
176
     1
290
     0
176
     1
290
     0
176
     1
 90
       50
176
     1
 40
0.0
176
     1
 40
1.0
176
     1
 90
        0
176
     1
 62
    18
420
        0
176
     1
 90
       50
176
     1
 90
        3
176
     1
 62
     5
420
      255
176
     1
290
     0
176
     1
 90
       50
176
     1
 90
       50
176
     1
 90
       50
176
     1
290
     0
176
     1
 90
       50
176
     1
 62
   256
176
     0
 40
1.0
176
     0
 90
        2
176
     1
  1
strokes_ogs.tif
176
     1
290
     0
176
     1
 40
1.0
176
     1
 40
1.0
176
     1
  0
VISUALSTYLE
  5
19C
102
{ACAD_REACTORS
330
191
102
}
330
191
100
AcDbVisualStyle
  2
Dim
 70
    11
177
     3
291
     1
 70
    58
 90
        2
176
     1
 90
        2
176
     1
 90
        0
176
     1
 90
        0
176
     1
 40
0.6
176
     1
 40
30.0
176
     1
 62
     7
420
 16777215
176
     1
 90
        1
176
     1
 90
        4
176
     1
 62
     7
176
     1
 62
   257
176
     1
 90
        1
176
     1
 90
        1
176
     1
 40
1.0
176
     1
 90
        8
176
     1
 62
     7
176
     1
 40
1.0
176
     1
 90
        1
176
     1
 90
        6
176
     1
 90
        2
176
     1
 62
     7
176
     1
 90
        5
176
     1
 90
        0
176
     1
 90
        0
176
     1
290
     0
176
     1
 90
        1
176
     1
 40
-50.0
176
     1
 90
        0
176
     1
290
     0
176
     1
290
     1
176
     1
290
     1
176
     1
290
     0
176
     1
290
     0
176
     1
290
     0
176
     1
290
     0
176
     1
290
     0
176
     1
290
     0
176
     1
 90
       50
176
     1
 40
0.0
176
     1
 40
1.0
176
     1
 90
        0
176
     1
 62
    18
420
        0
176
     1
 90
       50
176
     1
 90
        3
176
     1
 62
     5
420
      255
176
     1
290
     0
176
     1
 90
       50
176
     1
 90
       50
176
     1
 90
       50
176
     1
290
     0
176
     1
 90
       50
176
     1
 62
   256
176
     0
 40
1.0
176
     0
 90
        2
176
     1
  1
strokes_ogs.tif
176
     1
290
     0
176
     1
 40
1.0
176
     1
 40
1.0
176
     1
  0
VISUALSTYLE
  5
1A4
102
{ACAD_REACTORS
330
191
102
}
330
191
100
AcDbVisualStyle
  2
EdgeColorOff
 70
    22
177
     3
291
     1
 70
    58
 90
        2
176
     0
 90
        2
176
     0
 90
        0
176
     0
 90
        0
176
     0
 40
0.6
176
     0
 40
30.0
176
     0
 62
     7
420
 16777215
176
     0
 90
        1
176
     0
 90
        4
176
     0
 62
     7
176
     0
 62
   257
176
     0
 90
        1
176
     0
 90
        1
176
     0
 40
1.0
176
     0
 90
        8
176
     2
 62
     7
176
     0
 40
1.0
176
     0
 90
        1
176
     0
 90
        6
176
     0
 90
        2
176
     0
 62
     7
176
     0
 90
        5
176
     0
 90
        0
176
     0
 90
        0
176
     0
290
     0
176
     0
 90
        1
176
     0
 40
0.0
176
     0
 90
        0
176
     0
290
     0
176
     0
290
     1
176
     0
290
     1
176
     0
290
     0
176
     0
290
     0
176
     0
290
     0
176
     0
290
     0
176
     0
290
     0
176
     0
290
     0
176
     0
 90
       50
176
     0
 40
0.0
176
     0
 40
1.0
176
     0
 90
        0
176
     0
 62
    18
420
        0
176
     0
 90
       50
176
     0
 90
        3
176
     0
 62
     5
420
      255
176
     0
290
     0
176
     0
 90
       50
176
     0
 90
       50
176
     0
 90
       50
176
     0
290
     0
176
     0
 90
       50
176
     0
 62
   256
176
     0
 40
1.0
176
     0
 90
        2
176
     0
  1
strokes_ogs.tif
176
     0
290
     0
176
     0
 40
1.0
176
     0
 40
1.0
176
     0
  0
VISUALSTYLE
  5
1A0
102
{ACAD_REACTORS
330
191
102
}
330
191
100
AcDbVisualStyle
  2
Facepattern
 70
    15
177
     3
291
     1
 70
    58
 90
        2
176
     1
 90
        2
176
     1
 90
        0
176
     1
 90
        0
176
     1
 40
0.6
176
     1
 40
30.0
176
     1
 62
     7
420
 16777215
176
     1
 90
        1
176
     1
 90
        4
176
     1
 62
     7
176
     1
 62
   257
176
     1
 90
        1
176
     1
 90
        1
176
     1
 40
1.0
176
     1
 90
        8
176
     1
 62
     7
176
     1
 40
1.0
176
     1
 90
        1
176
     1
 90
        6
176
     1
 90
        2
176
     1
 62
     7
176
     1
 90
        5
176
     1
 90
        0
176
     1
 90
        0
176
     1
290
     0
176
     1
 90
        1
176
     1
 40
0.0
176
     1
 90
        0
176
     1
290
     0
176
     1
290
     1
176
     1
290
     1
176
     1
290
     0
176
     1
290
     0
176
     1
290
     0
176
     1
290
     0
176
     1
290
     0
176
     1
290
     0
176
     1
 90
       50
176
     1
 40
0.0
176
     1
 40
1.0
176
     1
 90
        0
176
     1
 62
    18
420
        0
176
     1
 90
       50
176
     1
 90
        3
176
     1
 62
     5
420
      255
176
     1
290
     0
176
     1
 90
       50
176
     1
 90
       50
176
     1
 90
       50
176
     1
290
     0
176
     1
 90
       50
176
     1
 62
   256
176
     0
 40
1.0
176
     0
 90
        2
176
     1
  1
strokes_ogs.tif
176
     1
290
     0
176
     1
 40
1.0
176
     1
 40
1.0
176
     1
  0
VISUALSTYLE
  5
192
102
{ACAD_REACTORS
330
191
102
}
330
191
100
AcDbVisualStyle
  2
Flat
 70
     0
177
     3
291
     1
 70
    58
 90
        2
176
     1
 90
        1
176
     1
 90
        1
176
     1
 90
        2
176
     1
 40
0.6
176
     1
 40
30.0
176
     1
 62
     7
420
 16777215
176
     1
 90
        0
176
     1
 90
        0
176
     1
 62
     7
176
     1
 62
   257
176
     1
 90
        1
176
     1
 90
        1
176
     1
 40
1.0
176
     1
 90
        8
176
     1
 62
     7
176
     1
 40
1.0
176
     1
 90
        1
176
     1
 90
        6
176
     1
 90
        2
176
     1
 62
     7
176
     1
 90
        5
176
     1
 90
        0
176
     1
 90
        0
176
     1
290
     0
176
     1
 90
       13
176
     1
 40
0.0
176
     1
 90
        0
176
     1
290
     0
176
     1
290
     1
176
     1
290
     1
176
     1
290
     0
176
     1
290
     0
176
     1
290
     0
176
     1
290
     0
176
     1
290
     0
176
     1
290
     0
176
     1
 90
       50
176
     1
 40
0.0
176
     1
 40
1.0
176
     1
 90
        0
176
     1
 62
    18
420
        0
176
     1
 90
       50
176
     1
 90
        3
176
     1
 62
     5
420
      255
176
     1
290
     0
176
     1
 90
       50
176
     1
 90
       50
176
     1
 90
       50
176
     1
290
     0
176
     1
 90
       50
176
     1
 62
   256
176
     0
 40
1.0
176
     0
 90
        2
176
     1
  1
strokes_ogs.tif
176
     1
290
     0
176
     1
 40
1.0
176
     1
 40
1.0
176
     1
  0
VISUALSTYLE
  5
193
102
{ACAD_REACTORS
330
191
102
}
330
191
100
AcDbVisualStyle
  2
FlatWithEdges
 70
     1
177
     3
291
     1
 70
    58
 90
        2
176
     1
 90
        1
176
     1
 90
        1
176
     1
 90
        2
176
     1
 40
0.6
176
     1
 40
30.0
176
     1
 62
     7
420
 16777215
176
     1
 90
        1
176
     1
 90
        0
176
     1
 62
     7
176
     1
 62
   257
176
     1
 90
        1
176
     1
 90
        1
176
     1
 40
1.0
176
     1
 90
        0
176
     1
 62
   257
176
     1
 40
1.0
176
     1
 90
        1
176
     1
 90
        6
176
     1
 90
        2
176
     1
 62
     7
176
     1
 90
        5
176
     1
 90
        0
176
     1
 90
        0
176
     1
290
     0
176
     1
 90
       13
176
     1
 40
0.0
176
     1
 90
        0
176
     1
290
     0
176
     1
290
     1
176
     1
290
     1
176
     1
290
     0
176
     1
290
     0
176
     1
290
     0
176
     1
290
     0
176
     1
290
     0
176
     1
290
     0
176
     1
 90
       50
176
     1
 40
0.0
176
     1
 40
1.0
176
     1
 90
        0
176
     1
 62
    18
420
        0
176
     1
 90
       50
176
     1
 90
        3
176
     1
 62
     5
420
      255
176
     1
290
     0
176
     1
 90
       50
176
     1
 90
       50
176
     1
 90
       50
176
     1
290
     0
176
     1
 90
       50
176
     1
 62
   256
176
     0
 40
1.0
176
     0
 90
        2
176
     1
  1
strokes_ogs.tif
176
     1
290
     0
176
     1
 40
1.0
176
     1
 40
1.0
176
     1
  0
VISUALSTYLE
  5
194
102
{ACAD_REACTORS
330
191
102
}
330
191
100
AcDbVisualStyle
  2
Gouraud
 70
     2
177
     3
291
     1
 70
    58
 90
        2
176
     1
 90
        2
176
     1
 90
        1
176
     1
 90
        2
176
     1
 40
0.6
176
     1
 40
30.0
176
     1
 62
     7
420
 16777215
176
     1
 90
        0
176
     1
 90
        0
176
     1
 62
     7
176
     1
 62
   257
176
     1
 90
        1
176
     1
 90
        1
176
     1
 40
1.0
176
     1
 90
        0
176
     1
 62
     7
176
     1
 40
1.0
176
     1
 90
        1
176
     1
 90
        6
176
     1
 90
        2
176
     1
 62
     7
176
     1
 90
        5
176
     1
 90
        0
176
     1
 90
        0
176
     1
290
     0
176
     1
 90
       13
176
     1
 40
0.0
176
     1
 90
        0
176
     1
290
     0
176
     1
290
     1
176
     1
290
     1
176
     1
290
     0
176
     1
290
     0
176
     1
290
     0
176
     1
290
     0
176
     1
290
     0
176
     1
290
     0
176
     1
 90
       50
176
     1
 40
0.0
176
     1
 40
1.0
176
     1
 90
        0
176
     1
 62
    18
420
        0
176
     1
 90
       50
176
     1
 90
        3
176
     1
 62
     5
420
      255
176
     1
290
     0
176
     1
 90
       50
176
     1
 90
       50
176
     1
 90
       50
176
     1
290
     0
176
     1
 90
       50
176
     1
 62
   256
176
     0
 40
1.0
176
     0
 90
        2
176
     1
  1
strokes_ogs.tif
176
     1
290
     0
176
     1
 40
1.0
176
     1
 40
1.0
176
     1
  0
VISUALSTYLE
  5
195
102
{ACAD_REACTORS
330
191
102
}
330
191
100
AcDbVisualStyle
  2
GouraudWithEdges
 70
     3
177
     3
291
     1
 70
    58
 90
        2
176
     1
 90
        2
176
     1
 90
        1
176
     1
 90
        2
176
     1
 40
0.6
176
     1
 40
30.0
176
     1
 62
     7
420
 16777215
176
     1
 90
        1
176
     1
 90
        0
176
     1
 62
     7
176
     1
 62
   257
176
     1
 90
        1
176
     1
 90
        1
176
     1
 40
1.0
176
     1
 90
        0
176
     1
 62
   257
176
     1
 40
1.0
176
     1
 90
        1
176
     1
 90
        6
176
     1
 90
        2
176
     1
 62
     7
176
     1
 90
        5
176
     1
 90
        0
176
     1
 90
        0
176
     1
290
     0
176
     1
 90
       13
176
     1
 40
0.0
176
     1
 90
        0
176
     1
290
     0
176
     1
290
     1
176
     1
290
     1
176
     1
290
     0
176
     1
290
     0
176
     1
290
     0
176
     1
290
     0
176
     1
290
     0
176
     1
290
     0
176
     1
 90
       50
176
     1
 40
0.0
176
     1
 40
1.0
176
     1
 90
        0
176
     1
 62
    18
420
        0
176
     1
 90
       50
176
     1
 90
        3
176
     1
 62
     5
420
      255
176
     1
290
     0
176
     1
 90
       50
176
     1
 90
       50
176
     1
 90
       50
176
     1
290
     0
176
     1
 90
       50
176
     1
 62
   256
176
     0
 40
1.0
176
     0
 90
        2
176
     1
  1
strokes_ogs.tif
176
     1
290
     0
176
     1
 40
1.0
176
     1
 40
1.0
176
     1
  0
VISUALSTYLE
  5
198
102
{ACAD_REACTORS
330
191
102
}
330
191
100
AcDbVisualStyle
  2
Hidden
 70
     6
177
     3
291
     0
 70
    58
 90
        1
176
     1
 90
        2
176
     1
 90
        2
176
     1
 90
        0
176
     1
 40
0.6
176
     1
 40
30.0
176
     1
 62
     7
420
 16777215
176
     1
 90
        2
176
     1
 90
        2
176
     1
 62
     7
176
     1
 62
   257
176
     1
 90
        2
176
     1
 90
        1
176
     1
 40
40.0
176
     1
 90
        0
176
     1
 62
   257
176
     1
 40
1.0
176
     1
 90
        1
176
     1
 90
        6
176
     1
 90
        2
176
     1
 62
     7
176
     1
 90
        3
176
     1
 90
        0
176
     1
 90
        0
176
     1
290
     0
176
     1
 90
        1
176
     1
 40
0.0
176
     1
 90
        0
176
     1
290
     0
176
     1
290
     1
176
     1
290
     1
176
     1
290
     0
176
     1
290
     0
176
     1
290
     0
176
     1
290
     0
176
     1
290
     0
176
     1
290
     0
176
     1
 90
       50
176
     1
 40
0.0
176
     1
 40
1.0
176
     1
 90
        0
176
     1
 62
    18
420
        0
176
     1
 90
       50
176
     1
 90
        3
176
     1
 62
     5
420
      255
176
     1
290
     0
176
     1
 90
       50
176
     1
 90
       50
176
     1
 90
       50
176
     1
290
     0
176
     1
 90
       50
176
     1
 62
   256
176
     0
 40
1.0
176
     0
 90
        2
176
     1
  1
strokes_ogs.tif
176
     1
290
     0
176
     1
 40
1.0
176
     1
 40
1.0
176
     1
  0
VISUALSTYLE
  5
1A2
102
{ACAD_REACTORS
330
191
102
}
330
191
100
AcDbVisualStyle
  2
JitterOff
 70
    20
177
     3
291
     1
 70
    58
 90
        2
176
     0
 90
        2
176
     0
 90
        0
176
     0
 90
        0
176
     0
 40
0.6
176
     0
 40
30.0
176
     0
 62
     7
420
 16777215
176
     0
 90
        1
176
     0
 90
        4
176
     0
 62
     7
176
     0
 62
   257
176
     0
 90
        1
176
     0
 90
        1
176
     0
 40
1.0
176
     0
 90
       10
176
     2
 62
     7
176
     0
 40
1.0
176
     0
 90
        1
176
     0
 90
        6
176
     0
 90
        2
176
     0
 62
     7
176
     0
 90
        5
176
     0
 90
        0
176
     0
 90
        0
176
     0
290
     0
176
     0
 90
        1
176
     0
 40
0.0
176
     0
 90
        0
176
     0
290
     0
176
     0
290
     1
176
     0
290
     1
176
     0
290
     0
176
     0
290
     0
176
     0
290
     0
176
     0
290
     0
176
     0
290
     0
176
     0
290
     0
176
     0
 90
       50
176
     0
 40
0.0
176
     0
 40
1.0
176
     0
 90
        0
176
     0
 62
    18
420
        0
176
     0
 90
       50
176
     0
 90
        3
176
     0
 62
     5
420
      255
176
     0
290
     0
176
     0
 90
       50
176
     0
 90
       50
176
     0
 90
       50
176
     0
290
     0
176
     0
 90
       50
176
     0
 62
   256
176
     0
 40
1.0
176
     0
 90
        2
176
     0
  1
strokes_ogs.tif
176
     0
290
     0
176
     0
 40
1.0
176
     0
 40
1.0
176
     0
  0
VISUALSTYLE
  5
19F
102
{ACAD_REACTORS
330
191
102
}
330
191
100
AcDbVisualStyle
  2
Linepattern
 70
    14
177
     3
291
     1
 70
    58
 90
        2
176
     1
 90
        2
176
     1
 90
        0
176
     1
 90
        0
176
     1
 40
0.6
176
     1
 40
30.0
176
     1
 62
     7
420
 16777215
176
     1
 90
        1
176
     1
 90
        4
176
     1
 62
     7
176
     1
 62
   257
176
     1
 90
        7
176
     1
 90
        7
176
     1
 40
1.0
176
     1
 90
        8
176
     1
 62
     7
176
     1
 40
1.0
176
     1
 90
        1
176
     1
 90
        6
176
     1
 90
        2
176
     1
 62
     7
176
     1
 90
        5
176
     1
 90
        0
176
     1
 90
        0
176
     1
290
     0
176
     1
 90
        1
176
     1
 40
0.0
176
     1
 90
        0
176
     1
290
     0
176
     1
290
     1
176
     1
290
     1
176
     1
290
     0
176
     1
290
     0
176
     1
290
     0
176
     1
290
     0
176
     1
290
     0
176
     1
290
     0
176
     1
 90
       50
176
     1
 40
0.0
176
     1
 40
1.0
176
     1
 90
        0
176
     1
 62
    18
420
        0
176
     1
 90
       50
176
     1
 90
        3
176
     1
 62
     5
420
      255
176
     1
290
     0
176
     1
 90
       50
176
     1
 90
       50
176
     1
 90
       50
176
     1
290
     0
176
     1
 90
       50
176
     1
 62
   256
176
     0
 40
1.0
176
     0
 90
        2
176
     1
  1
strokes_ogs.tif
176
     1
290
     0
176
     1
 40
1.0
176
     1
 40
1.0
176
     1
  0
VISUALSTYLE
  5
1A3
102
{ACAD_REACTORS
330
191
102
}
330
191
100
AcDbVisualStyle
  2
OverhangOff
 70
    21
177
     3
291
     1
 70
    58
 90
        2
176
     0
 90
        2
176
     0
 90
        0
176
     0
 90
        0
176
     0
 40
0.6
176
     0
 40
30.0
176
     0
 62
     7
420
 16777215
176
     0
 90
        1
176
     0
 90
        4
176
     0
 62
     7
176
     0
 62
   257
176
     0
 90
        1
176
     0
 90
        1
176
     0
 40
1.0
176
     0
 90
        9
176
     2
 62
     7
176
     0
 40
1.0
176
     0
 90
        1
176
     0
 90
        6
176
     0
 90
        2
176
     0
 62
     7
176
     0
 90
        5
176
     0
 90
        0
176
     0
 90
        0
176
     0
290
     0
176
     0
 90
        1
176
     0
 40
0.0
176
     0
 90
        0
176
     0
290
     0
176
     0
290
     1
176
     0
290
     1
176
     0
290
     0
176
     0
290
     0
176
     0
290
     0
176
     0
290
     0
176
     0
290
     0
176
     0
290
     0
176
     0
 90
       50
176
     0
 40
0.0
176
     0
 40
1.0
176
     0
 90
        0
176
     0
 62
    18
420
        0
176
     0
 90
       50
176
     0
 90
        3
176
     0
 62
     5
420
      255
176
     0
290
     0
176
     0
 90
       50
176
     0
 90
       50
176
     0
 90
       50
176
     0
290
     0
176
     0
 90
       50
176
     0
 62
   256
176
     0
 40
1.0
176
     0
 90
        2
176
     0
  1
strokes_ogs.tif
176
     0
290
     0
176
     0
 40
1.0
176
     0
 40
1.0
176
     0
  0
VISUALSTYLE
  5
19A
102
{ACAD_REACTORS
330
191
102
}
330
191
100
AcDbVisualStyle
  2
Realistic
 70
     8
177
     3
291
     0
 70
    58
 90
        2
176
     1
 90
        3
176
     1
 90
        0
176
     1
 90
        2
176
     1
 40
0.6
176
     1
 40
30.0
176
     1
 62
     7
420
 16777215
176
     1
 90
        0
176
     1
 90
        0
176
     1
 62
     7
176
     1
 62
   257
176
     1
 90
        1
176
     1
 90
        1
176
     1
 40
1.0
176
     1
 90
        8
176
     1
 62
   257
176
     1
 40
1.0
176
     1
 90
        1
176
     1
 90
        6
176
     1
 90
        2
176
     1
 62
     7
176
     1
 90
        3
176
     1
 90
        0
176
     1
 90
        0
176
     1
290
     0
176
     1
 90
       13
176
     1
 40
0.0
176
     1
 90
        0
176
     1
290
     0
176
     1
290
     1
176
     1
290
     1
176
     1
290
     0
176
     1
290
     0
176
     1
290
     0
176
     1
290
     0
176
     1
290
     0
176
     1
290
     0
176
     1
 90
       50
176
     1
 40
0.0
176
     1
 40
1.0
176
     1
 90
        0
176
     1
 62
    18
420
        0
176
     1
 90
       50
176
     1
 90
        3
176
     1
 62
     5
420
      255
176
     1
290
     0
176
     1
 90
       50
176
     1
 90
       50
176
     1
 90
       50
176
     1
290
     0
176
     1
 90
       50
176
     1
 62
   256
176
     0
 40
1.0
176
     0
 90
        2
176
     1
  1
strokes_ogs.tif
176
     1
290
     0
176
     1
 40
1.0
176
     1
 40
1.0
176
     1
  0
VISUALSTYLE
  5
1A9
102
{ACAD_REACTORS
330
191
102
}
330
191
100
AcDbVisualStyle
  2
Shaded
 70
    27
177
     3
291
     0
 70
    58
 90
        2
176
     1
 90
        2
176
     1
 90
        1
176
     1
 90
        2
176
     1
 40
0.6
176
     1
 40
30.0
176
     1
 62
     7
420
 16777215
176
     1
 90
        0
176
     1
 90
        4
176
     1
 62
     7
176
     1
 62
   257
176
     1
 90
        1
176
     1
 90
        1
176
     1
 40
1.0
176
     1
 90
        8
176
     1
 62
   257
176
     1
 40
1.0
176
     1
 90
        1
176
     1
 90
        6
176
     1
 90
        2
176
     1
 62
     8
420
  7895160
176
     1
 90
        3
176
     1
 90
        0
176
     1
 90
        0
176
     1
290
     0
176
     1
 90
        5
176
     1
 40
0.0
176
     1
 90
        0
176
     1
290
     0
176
     1
290
     1
176
     1
290
     1
176
     1
290
     0
176
     1
290
     0
176
     1
290
     0
176
     1
290
     0
176
     1
290
     0
176
     1
290
     0
176
     1
 90
       50
176
     1
 40
0.0
176
     1
 40
1.0
176
     1
 90
        0
176
     1
 62
    18
420
        0
176
     1
 90
       50
176
     1
 90
        3
176
     1
 62
     5
420
      255
176
     1
290
     0
176
     1
 90
       50
176
     1
 90
       50
176
     1
 90
       50
176
     1
290
     0
176
     1
 90
       50
176
     1
 62
   256
176
     0
 40
1.0
176
     0
 90
        2
176
     1
  1
strokes_ogs.tif
176
     1
290
     0
176
     1
 40
1.0
176
     1
 40
1.0
176
     1
  0
VISUALSTYLE
  5
1A8
102
{ACAD_REACTORS
330
191
102
}
330
191
100
AcDbVisualStyle
  2
Shaded with edges
 70
    26
177
     3
291
     0
 70
    58
 90
        2
176
     1
 90
        2
176
     1
 90
        1
176
     1
 90
        2
176
     1
 40
0.6
176
     1
 40
30.0
176
     1
 62
     7
420
 16777215
176
     1
 90
        1
176
     1
 90
       10
176
     1
 62
     7
176
     1
 62
   257
176
     1
 90
        2
176
     1
 90
        1
176
     1
 40
1.0
176
     1
 90
        8
176
     1
 62
   257
176
     1
 40
1.0
176
     1
 90
        1
176
     1
 90
        6
176
     1
 90
        2
176
     1
 62
     7
176
     1
 90
        3
176
     1
 90
        0
176
     1
 90
        0
176
     1
290
     0
176
     1
 90
        5
176
     1
 40
0.0
176
     1
 90
        0
176
     1
290
     0
176
     1
290
     1
176
     1
290
     1
176
     1
290
     0
176
     1
290
     0
176
     1
290
     0
176
     1
290
     0
176
     1
290
     0
176
     1
290
     0
176
     1
 90
       50
176
     1
 40
0.0
176
     1
 40
1.0
176
     1
 90
        0
176
     1
 62
    18
420
        0
176
     1
 90
       50
176
     1
 90
        3
176
     1
 62
     5
420
      255
176
     1
290
     0
176
     1
 90
       50
176
     1
 90
       50
176
     1
 90
       50
176
     1
290
     0
176
     1
 90
       50
176
     1
 62
   256
176
     0
 40
1.0
176
     0
 90
        2
176
     1
  1
strokes_ogs.tif
176
     1
290
     0
176
     1
 40
1.0
176
     1
 40
1.0
176
     1
  0
VISUALSTYLE
  5
1A5
102
{ACAD_REACTORS
330
191
102
}
330
191
100
AcDbVisualStyle
  2
Shades of Gray
 70
    23
177
     3
291
     0
 70
    58
 90
        2
176
     1
 90
        2
176
     1
 90
        3
176
     1
 90
        0
176
     1
 40
0.6
176
     1
 40
30.0
176
     1
 62
     7
420
 16777215
176
     1
 90
        2
176
     1
 90
        2
176
     1
 62
     7
176
     1
 62
     7
176
     1
 90
        1
176
     1
 90
        1
176
     1
 40
40.0
176
     1
 90
        8
176
     1
 62
     7
176
     1
 40
1.0
176
     1
 90
        1
176
     1
 90
        6
176
     1
 90
        2
176
     1
 62
     7
176
     1
 90
        3
176
     1
 90
        0
176
     1
 90
        0
176
     1
290
     0
176
     1
 90
        1
176
     1
 40
0.0
176
     1
 90
        0
176
     1
290
     0
176
     1
290
     1
176
     1
290
     1
176
     1
290
     0
176
     1
290
     0
176
     1
290
     0
176
     1
290
     0
176
     1
290
     0
176
     1
290
     0
176
     1
 90
       50
176
     1
 40
0.0
176
     1
 40
1.0
176
     1
 90
        0
176
     1
 62
    18
420
        0
176
     1
 90
       50
176
     1
 90
        3
176
     1
 62
     5
420
      255
176
     1
290
     0
176
     1
 90
       50
176
     1
 90
       50
176
     1
 90
       50
176
     1
290
     0
176
     1
 90
       50
176
     1
 62
   256
176
     0
 40
1.0
176
     0
 90
        2
176
     1
  1
strokes_ogs.tif
176
     1
290
     0
176
     1
 40
1.0
176
     1
 40
1.0
176
     1
  0
VISUALSTYLE
  5
1A6
102
{ACAD_REACTORS
330
191
102
}
330
191
100
AcDbVisualStyle
  2
Sketchy
 70
    24
177
     3
291
     0
 70
    58
 90
        1
176
     1
 90
        2
176
     1
 90
        2
176
     1
 90
        0
176
     1
 40
0.6
176
     1
 40
30.0
176
     1
 62
     7
420
 16777215
176
     1
 90
        2
176
     1
 90
        2
176
     1
 62
     7
176
     1
 62
     7
176
     1
 90
        1
176
     1
 90
        1
176
     1
 40
40.0
176
     1
 90
       11
176
     1
 62
     7
176
     1
 40
1.0
176
     1
 90
        1
176
     1
 90
        6
176
     1
 90
        2
176
     1
 62
     7
176
     1
 90
        6
176
     1
 90
        0
176
     1
 90
        0
176
     1
290
     0
176
     1
 90
        1
176
     1
 40
0.0
176
     1
 90
        0
176
     1
290
     0
176
     1
290
     1
176
     1
290
     1
176
     1
290
     0
176
     1
290
     0
176
     1
290
     0
176
     1
290
     0
176
     1
290
     0
176
     1
290
     0
176
     1
 90
       50
176
     1
 40
0.0
176
     1
 40
1.0
176
     1
 90
        0
176
     1
 62
    18
420
        0
176
     1
 90
       50
176
     1
 90
        3
176
     1
 62
     5
420
      255
176
     1
290
     0
176
     1
 90
       50
176
     1
 90
       50
176
     1
 90
       50
176
     1
290
     0
176
     1
 90
       50
176
     1
 62
   256
176
     0
 40
1.0
176
     0
 90
        2
176
     1
  1
strokes_ogs.tif
176
     1
290
     0
176
     1
 40
1.0
176
     1
 40
1.0
176
     1
  0
VISUALSTYLE
  5
19E
102
{ACAD_REACTORS
330
191
102
}
330
191
100
AcDbVisualStyle
  2
Thicken
 70
    13
177
     3
291
     1
 70
    58
 90
        2
176
     1
 90
        2
176
     1
 90
        0
176
     1
 90
        0
176
     1
 40
0.6
176
     1
 40
30.0
176
     1
 62
     7
420
 16777215
176
     1
 90
        1
176
     1
 90
        4
176
     1
 62
     7
176
     1
 62
   257
176
     1
 90
        1
176
     1
 90
        1
176
     1
 40
1.0
176
     1
 90
       12
176
     1
 62
     7
176
     1
 40
1.0
176
     1
 90
        1
176
     1
 90
        6
176
     1
 90
        2
176
     1
 62
     7
176
     1
 90
        5
176
     1
 90
        0
176
     1
 90
        0
176
     1
290
     0
176
     1
 90
        1
176
     1
 40
0.0
176
     1
 90
        0
176
     1
290
     0
176
     1
290
     1
176
     1
290
     1
176
     1
290
     0
176
     1
290
     0
176
     1
290
     0
176
     1
290
     0
176
     1
290
     0
176
     1
290
     0
176
     1
 90
       50
176
     1
 40
0.0
176
     1
 40
1.0
176
     1
 90
        0
176
     1
 62
    18
420
        0
176
     1
 90
       50
176
     1
 90
        3
176
     1
 62
     5
420
      255
176
     1
290
     0
176
     1
 90
       50
176
     1
 90
       50
176
     1
 90
       50
176
     1
290
     0
176
     1
 90
       50
176
     1
 62
   256
176
     0
 40
1.0
176
     0
 90
        2
176
     1
  1
strokes_ogs.tif
176
     1
290
     0
176
     1
 40
1.0
176
     1
 40
1.0
176
     1
  0
VISUALSTYLE
  5
197
102
{ACAD_REACTORS
330
191
102
}
330
191
100
AcDbVisualStyle
  2
Wireframe
 70
     5
177
     3
291
     0
 70
    58
 90
        0
176
     1
 90
        2
176
     1
 90
        0
176
     1
 90
        0
176
     1
 40
0.6
176
     1
 40
30.0
176
     1
 62
     7
420
 16777215
176
     1
 90
        1
176
     1
 90
        4
176
     1
 62
     7
176
     1
 62
   257
176
     1
 90
        1
176
     1
 90
        1
176
     1
 40
1.0
176
     1
 90
        0
176
     1
 62
   257
176
     1
 40
1.0
176
     1
 90
        1
176
     1
 90
        6
176
     1
 90
        2
176
     1
 62
     7
176
     1
 90
        3
176
     1
 90
        0
176
     1
 90
        0
176
     1
290
     0
176
     1
 90
        1
176
     1
 40
0.0
176
     1
 90
        0
176
     1
290
     0
176
     1
290
     1
176
     1
290
     1
176
     1
290
     0
176
     1
290
     0
176
     1
290
     0
176
     1
290
     0
176
     1
290
     0
176
     1
290
     0
176
     1
 90
       50
176
     1
 40
0.0
176
     1
 40
1.0
176
     1
 90
        0
176
     1
 62
    18
420
        0
176
     1
 90
       50
176
     1
 90
        3
176
     1
 62
     5
420
      255
176
     1
290
     0
176
     1
 90
       50
176
     1
 90
       50
176
     1
 90
       50
176
     1
290
     0
176
     1
 90
       50
176
     1
 62
   256
176
     0
 40
1.0
176
     0
 90
        2
176
     1
  1
strokes_ogs.tif
176
     1
290
     0
176
     1
 40
1.0
176
     1
 40
1.0
176
     1
  0
VISUALSTYLE
  5
1A7
102
{ACAD_REACTORS
330
191
102
}
330
191
100
AcDbVisualStyle
  2
X-Ray
 70
    25
177
     3
291
     0
 70
    58
 90
        2
176
     1
 90
        2
176
     1
 90
        1
176
     1
 90
        1
176
     1
 40
0.5
176
     1
 40
30.0
176
     1
 62
     7
420
 16777215
176
     1
 90
        1
176
     1
 90
        0
176
     1
 62
     7
176
     1
 62
   257
176
     1
 90
        1
176
     1
 90
        1
176
     1
 40
1.0
176
     1
 90
        8
176
     1
 62
     7
176
     1
 40
1.0
176
     1
 90
        1
176
     1
 90
        6
176
     1
 90
        2
176
     1
 62
     7
176
     1
 90
        3
176
     1
 90
        0
176
     1
 90
        0
176
     1
290
     0
176
     1
 90
       13
176
     1
 40
0.0
176
     1
 90
        0
176
     1
290
     0
176
     1
290
     1
176
     1
290
     1
176
     1
290
     0
176
     1
290
     0
176
     1
290
     0
176
     1
290
     0
176
     1
290
     0
176
     1
290
     0
176
     1
 90
       50
176
     1
 40
0.0
176
     1
 40
1.0
176
     1
 90
        0
176
     1
 62
    18
420
        0
176
     1
 90
       50
176
     1
 90
        3
176
     1
 62
     5
420
      255
176
     1
290
     0
176
     1
 90
       50
176
     1
 90
       50
176
     1
 90
       50
176
     1
290
     0
176
     1
 90
       50
176
     1
 62
   256
176
     0
 40
1.0
176
     0
 90
        2
176
     1
  1
strokes_ogs.tif
176
     1
290
     0
176
     1
 40
1.0
176
     1
 40
1.0
176
     1
  0
DICTIONARYVAR
  5
1C2
102
{ACAD_REACTORS
330
1C1
102
}
330
1C1
100
DictionaryVariables
280
     0
  1
0
  0
CSACDOCUMENTOPTIONS
  5
1B7
102
{ACAD_REACTORS
330
1B6
102
}
330
1B6
  0
XRECORD
  5
1BB
102
{ACAD_REACTORS
330
1B0
102
}
330
1B0
100
AcDbXrecord
280
     1
300
MC_VERSION_DATA
 90
       95
310
0600000002000000570000001C000000E404000000000000000000007801936764E5D8CFFA9993818115C460606066E0646662626666706006F218793899F8DE3171E725E6E53B3BBA2878E6951050AF75FEFFFFFF520036E40F2657000000
  0
XRECORD
  5
1B1
102
{ACAD_REACTORS
330
1B0
102
}
330
1B0
100
AcDbXrecord
280
     1
300
MCS_DOCUMENT_ID
 90
       60
310
0600000002000000150000001C000000E404000000000000000000007801E3DDD63565E78A2DB9FEBD5A7F747D7EA52AFF07020079620C5D15000000
  0
XRECORD
  5
1B9
102
{ACAD_REACTORS
330
1B0
102
}
330
1B0
100
AcDbXrecord
280
     1
300
MCS_PARAMS_DATA
 90
     3313
310
0600000002000000F64B00001C000000E404000000000000000000007801C55C5B6C5CC519DE9D595FD6B9DF494B53970A1A6F4A58DF92A6426A1A1210527090E23EF0543976A2BA75E25CAC160A6DA92AF5A55255A96AD556551F4A49A0CF15A03EC0438190865E482021147221409310B6900B3826B1FB7F7366CEFC73E6
310
1CAFBDDE3D9B07D8FF3F73CEF7DFE6FB67E6ECBA757EA3143929F767A4FCCE8636299AA49C90529036BB402C105929F279912F89C6DEAF6FD8BC69AB14A46C51EAC2B9898909BA39945F872C1FCD848A834A91A13B1AD51D6D5266E8A9FAF627E9AABE92BD45CA6F03BD81A3CFC24D59D990C96408C7E066656E0232E13A03
310
14B0AB01724443F05CC3F08780DFC8F19B03FC710A073DC8486413411B49060E3311A05C24C45064703B01D7CCE196A818E5C59C9268B967CBD6DED68ED59DC52EEB78BEF08E09F8223D745649346F1DE9DB35D0B777C089FC5FC3C8EB60BF1A286CF47FE3467F17CC59C5CD990B0CD948C1A77FB9F5CA0E4F479188EA541E
310
3C25A2E22BC99C8892456878B2821857F6B05492C2AD881B41409C21325211340605C9C6DC6006EC49AC088A0CCBB25B1159B72248E415019155047D5453031360047082A7405D92B72AB0F03379693EAB50870260AC609E2C6F6510BB3D081DFE4EF5EFECD71494A7B3590EC7F12C5B25CB32539229914732934ECE22AF1D
310
D259AC8B7B7649E437DE7BDFA69EADF76EE95186E95A7ED74C032DBFA66A9BF1CEF341B19B78E45DDED9EF56FE29189043E4814BF734E1FF34659991678231F23A51010DA578E8294D435524988818E84710A7B2643B4F7C134F5CC6936D1E4176D01398C4D0A83AE0A6BDC86B0BB5C3E1E8299D70A5A945AC12322FE697C4
310
9C8DC3BBBE34D2BA77FBEEA1BEFEED79D15C120DF70F0FEE1A093EF60C8FF47F4BCAB3B0ED666EDB17F5733E2B445B5E2C298985C507BB8BEBBA3A3A3774178B1D777FA5B36B9D327BBE1ED84C030BC74C9EDAB5B64D88BC405AEF1E1CD9D73A34B88F70838775AD5DDBD1B9B6BBABBB73A0ABA37F5D7BE0E757F57D1DB80F
310
037BFBB60D6D6F1DDED1DA3B3CB47D6FDF2EF8A0AD5933506CEF2FF6F7ADD9D6B56D5DFF9A60D6A95222FF670B51F8295953F8455019945B7EE9315C7A8AFEC352DE9D4B4A5050256AA6D1B42D5F0C265BEED4473538E9811F770DEFDCDD3732B86D706870E4A1D69DC303E45F6349C807B6EFCB8B8692103DC352AE816545
310
9E9E798813B5E9A692C86DD9B1A355A5424F8E0BF018466AF90D150136590E2905AA568F782650907D5A7180140B84AD0159F8156902B8F63BDA8BE1A72E29AF48322EA98B5F578631B6F5489B26184C63434803DB221A328E6B58DEAED6DB808FEB6DC068BD0DF8A4DE065CABB7018B3045EB390B3EAD7704C6EA6DC07518
310
10B79C17773A0DB6C361F03BDD064B22C8C7303844629E5064B47323116EB9039777E096BB70247238880C6E39831B9F221C81B3E543C57019D4736C30574EE2DD4AD73B12B9771099772B997713E97A974DF4CECD5D9582B938116EC00926492C777A7F676A8F441E4C882C98032C983211AE26DE8974E196022EC7174366
310
F9AE62C95769E105B5C4B012E2E82ED8CD3516C5E34D519CF0D1F6765A8551C6CC0505130A3E8ABEC46EF81CED54DC1DA04AB7BC4DB0CA082453194AB29B82400C2B438BA6322032B88FE093B3E13470C11297490C8EEF78E88158D51A8AD42283A38F61044E78707A57F8BBDFE2DF2167F36975041D1DA7FCF59430C35792
310
05112533A905D5D3CAAB4759DBB4CA160F3E9309466F934A1794E7E1154C402D3088858048DCDF7EA3E7FECD5B7A7B376D5480CBF43A7E5E49CCBE6BEB37D945B2402FC65F52AB73B67E7F3A58AE93F37A04F6B7011D680556EBCCA2819BC8A21C320F385BBDB4EE56E6E32CE2CB18E358AD7676B4C7C096B1674BAF7B1278
310
1E906198B0DF8681EA696AF34D20563061CAB731C0DB01185B8B0DCA46538BD880EB0E2C6FC3120B40E62289BC162112587895C11513E18290E892090EBF46A9321968C513E0BB89A0AE8F2431B88A7DFC9E07A7BD0A8E668E3AF3CDEA083A3A8ECFB770A00AB53712018F2859D8DB3D93C2E4D422CB77A40BB73A5DB807A7
310
0857A5727AC8838BE45965D0D3D5B29CBEEF99145F4E558AC0C3E9C23D922EDC0FD285FBA107E7958EEDE721E98018A3E3AAC64E7F5C166D7ABA81B65C437BB31D766C74A6ED6E1FBC2766B7AFDAD87156F9771BF44A2A724C461AB43EE729AAFB710D63E2111810BBA3ABC9AE6037E09AB9BF3AB40BE8309F8736AB64CAB2
310
BE7E3364E5AC569CA6976081AF5A311628A8EF68C5B3A4609E3E86AC3AA156E3E83562F4B5A292099A878C61EB3B549CF92354989982613F016CE7AD5A4D09AA1F5126387AAD451EE384D9C035A925859E39C1AA865EE9A9B8DA21CEE289167F7CF1D4C4BC7A125EC5AED5D8BB0B5A9D9144D134CFA71BF85A8D44BE568348
310
F6AA55A2F3CAEACF6982FD29118CC249D3CBF852A586F278BA70FBD3853B90085793EDE51E143F0AD06C6B4CB2242BDDBDD1419166C2865E85F9CE1648F3CBF54B2E655D5432557AB8C599EEE6E763403914E55050D879E2BFFA30F366F009F0CB378371CA9B99D05949929DD07465EA8797A3808B6B06B9536E64AF9C844C
310
903AF2F3709D3783A318A078E4F37AEBBCEC2DD1B228B722F785DC2DB9D64C476675A63353CC74E937B1FA39BFA7DB58A6AFC19E49583A4A9B6110A6BA038D3C80418F79D091B18A763C1D8524AA5361F194EC4CC4B23EDBA3192533E95398E41423EB6DCA1C239B4DBF91D13F6D762A6897D7013D496371DC8BECCAA7D45E
310
0C251095ABC98AA38E1B6540CD3DACF829EF15C38D27C2B92DA64A071D13897001094F16523EC1C9E5A99FF465029665AB5B13C49AF8984D174EA40B273D389D33BB29A272F6749622C2719C22AC925104534E7A8CF33714555C6B3CF3BE4BE0AF28994CA9B8353E0F28878DD26D8D2F007FBAAD11BD305CEB4EAB35BE08B8
310
B8D678FEB81BD9134AB6ADF10A644BBEF9C2334A81E4EAA6772450D87DD2AF49C178F020A0EBD3055FF292CC5B8AB3FC4114C86BA708ACDB15F49C43C04EBBE7FCBD0CA8A1CB2AF59CC3897035E1E39713E16AD873FE91085A131FFF19C04DBEDBF8D75406FD3B3A2842E56C8ABE82A171BC3BF89ECB0E0F287926BC7B0450
310
75E4DDA3C09F2EEF56BE2579157071BCBBE7881BD93E255BDE7D04B225A07C61BD5230DE1DBA8C1158736B225E412358525F03747D78F79897E472BCCBAF5BAF2BA0DDE3804E9B765F2F035A65DA3D910857134A7A2311AE52DA8D6E0E9C1341735A873DD47F12A16BE2E99BE9C275792B70532835F1AEDB838B7404B509F7
310
74C449519D9AA19EB28205FF5B08785CE3F9307262735AC933693C270155C7C6730AF8E9359ED3808B6B3CA387DDC6734EC9B6F1C897238DE72006D89713F9C2E58B91C6F3388D608DE70CA0A7DA7866D30F8008DC16BEAA2D26A2AAB848F4108A0CF46D0F54D7A73989E2C56D75B6B8431D2F6EAB64C5CD94644C04869974
310
1626C5B6A280378D1BEE62BCE2C3917700E714386FAA719B1D7E7D464DF7DD444F8317374E8CAA75BEF65E19D0F8F0523EC21D7470DCC60B8CAEF29753FC38EF4760CFDBF99B4673F680D0869F6742513F06849341B61DF57EE3400A02734628D75C0DBC8B68A868B98655ECA330208EA3C6F1B52E3DF1E8849E2433679564
310
431A886148B568E62C4406F75F64308EFD2F9D7039EA6D259B5B2BF91AD8396F72B01004EFC5CD6C88F911E8CCDF849C077E5C64E9488747967101058B73015D99FA9B900B808B63FFB117DCC85E50324556799F2F34BC086EC70CD18A4318C0D9FF2AB6807CDB718046B0A4BE0FE8B4D9FFA207EA504E3D7E65FA014C7226
310
B329B0E8D703AAFEBAA304E869379E693123CD68457958A4FF2F11AE86ECFF6119D078F6E7138AD87FF2370F86D6E1E34789702D76FED2134932CCA824CB8C811832A3160D33426421BD940847AF6F0C11D33DEECB1CFE9B7175D1F926045DE5BD8DBFBDBE9C081764D0049324E6DDB40A8607F34A225C4D16463974B5B836
310
F3B3A32E193EACE499B49986C93A780A6DA631A981D7A6CD34012EAECDFCF23937B23F51B26D337F80CCDBCC36A5C0ECD07DE7E7A7236D663D8D6033A419D0536D33E07F56B8C4CA7C0D48229F9610695A461A0883CE7B494E8DD95B004DF38E8247AB09FE45AC1A52EDAC32A0861DD8DA85D8A76276989D08579353913989
310
700119397510D9BB4CAB9DF096393711B4263ECE4B176E7EBA700B3C389DB3F0B5335AA6A7234288EA142D784A9083AFB414616018456CF64C3293C4CD2F49D3E5A5F0410CEE3E0F2E6A6FEA11580893E29AEE529C2FC11C4DF48D4AA628982DB44A422820F8563073C8F989CF2240392BED74F7768B819FDEDE6E09E0E29A
310
EE0AFA030B3CB273954C91D5916E83CC9BEE074FAB1E6B73B11CFB6CBEB73B4C23589D2D05F4CC9AAE2E4C768646F0614DBB4BD40606BDCC4B726A4DF72640A7DD749797013521AB4ED3C5971C1BF2225712D922FD192CAA82F186C253F467B664EED8B163100EA1787299890C1D4314EEF90B040C236113FD72905624B8F0
310
99FF03A92412CEF64B0000
  0
DICTIONARY
  5
1BD
330
1B5
100
AcDbDictionary
280
     1
281
     1
  3
ACAD_ROUNDTRIP_2008_TABLESTYLE_CELLSTYLEMAP
360
1BE
  0
CELLSTYLEMAP
  5
1BE
102
{ACAD_REACTORS
330
1BD
102
}
330
1BD
100
AcDbCellStyleMap
 90
        3
300
CELLSTYLE
  1
TABLEFORMAT_BEGIN
 90
        5
170
     1
 91
        0
 92
        0
 62
   257
 93
        1
300
CONTENTFORMAT
  1
CONTENTFORMAT_BEGIN
 90
        0
 91
        0
 92
        4
 93
        0
300

 40
0.0
140
1.0
 94
        5
 62
     0
340
11
144
6.0
309
CONTENTFORMAT_END
171
     1
301
MARGIN
  1
CELLMARGIN_BEGIN
 40
1.5
 40
1.5
 40
1.5
 40
1.5
 40
4.5
 40
4.5
309
CELLMARGIN_END
 94
        6
 95
        1
302
GRIDFORMAT
  1
GRIDFORMAT_BEGIN
 90
        0
 91
        1
 62
     0
 92
       -2
340
14
 93
        0
 40
1.125
309
GRIDFORMAT_END
 95
        2
302
GRIDFORMAT
  1
GRIDFORMAT_BEGIN
 90
        0
 91
        1
 62
     0
 92
       -2
340
14
 93
        0
 40
1.125
309
GRIDFORMAT_END
 95
        4
302
GRIDFORMAT
  1
GRIDFORMAT_BEGIN
 90
        0
 91
        1
 62
     0
 92
       -2
340
14
 93
        0
 40
1.125
309
GRIDFORMAT_END
 95
        8
302
GRIDFORMAT
  1
GRIDFORMAT_BEGIN
 90
        0
 91
        1
 62
     0
 92
       -2
340
14
 93
        0
 40
1.125
309
GRIDFORMAT_END
 95
       16
302
GRIDFORMAT
  1
GRIDFORMAT_BEGIN
 90
        0
 91
        1
 62
     0
 92
       -2
340
14
 93
        0
 40
1.125
309
GRIDFORMAT_END
 95
       32
302
GRIDFORMAT
  1
GRIDFORMAT_BEGIN
 90
        0
 91
        1
 62
     0
 92
       -2
340
14
 93
        0
 40
1.125
309
GRIDFORMAT_END
309
TABLEFORMAT_END
  1
CELLSTYLE_BEGIN
 90
        1
 91
        1
300
_TITLE
309
CELLSTYLE_END
300
CELLSTYLE
  1
TABLEFORMAT_BEGIN
 90
        5
170
     1
 91
        0
 92
        0
 62
   257
 93
        1
300
CONTENTFORMAT
  1
CONTENTFORMAT_BEGIN
 90
        0
 91
        0
 92
        4
 93
        0
300

 40
0.0
140
1.0
 94
        5
 62
     0
340
11
144
4.5
309
CONTENTFORMAT_END
171
     1
301
MARGIN
  1
CELLMARGIN_BEGIN
 40
1.5
 40
1.5
 40
1.5
 40
1.5
 40
4.5
 40
4.5
309
CELLMARGIN_END
 94
        6
 95
        1
302
GRIDFORMAT
  1
GRIDFORMAT_BEGIN
 90
        0
 91
        1
 62
     0
 92
       -2
340
14
 93
        0
 40
1.125
309
GRIDFORMAT_END
 95
        2
302
GRIDFORMAT
  1
GRIDFORMAT_BEGIN
 90
        0
 91
        1
 62
     0
 92
       -2
340
14
 93
        0
 40
1.125
309
GRIDFORMAT_END
 95
        4
302
GRIDFORMAT
  1
GRIDFORMAT_BEGIN
 90
        0
 91
        1
 62
     0
 92
       -2
340
14
 93
        0
 40
1.125
309
GRIDFORMAT_END
 95
        8
302
GRIDFORMAT
  1
GRIDFORMAT_BEGIN
 90
        0
 91
        1
 62
     0
 92
       -2
340
14
 93
        0
 40
1.125
309
GRIDFORMAT_END
 95
       16
302
GRIDFORMAT
  1
GRIDFORMAT_BEGIN
 90
        0
 91
        1
 62
     0
 92
       -2
340
14
 93
        0
 40
1.125
309
GRIDFORMAT_END
 95
       32
302
GRIDFORMAT
  1
GRIDFORMAT_BEGIN
 90
        0
 91
        1
 62
     0
 92
       -2
340
14
 93
        0
 40
1.125
309
GRIDFORMAT_END
309
TABLEFORMAT_END
  1
CELLSTYLE_BEGIN
 90
        2
 91
        1
300
_HEADER
309
CELLSTYLE_END
300
CELLSTYLE
  1
TABLEFORMAT_BEGIN
 90
        5
170
     1
 91
        0
 92
        0
 62
   257
 93
        1
300
CONTENTFORMAT
  1
CONTENTFORMAT_BEGIN
 90
        0
 91
        0
 92
        4
 93
        0
300

 40
0.0
140
1.0
 94
        2
 62
     0
340
11
144
4.5
309
CONTENTFORMAT_END
171
     1
301
MARGIN
  1
CELLMARGIN_BEGIN
 40
1.5
 40
1.5
 40
1.5
 40
1.5
 40
4.5
 40
4.5
309
CELLMARGIN_END
 94
        6
 95
        1
302
GRIDFORMAT
  1
GRIDFORMAT_BEGIN
 90
        0
 91
        1
 62
     0
 92
       -2
340
14
 93
        0
 40
1.125
309
GRIDFORMAT_END
 95
        2
302
GRIDFORMAT
  1
GRIDFORMAT_BEGIN
 90
        0
 91
        1
 62
     0
 92
       -2
340
14
 93
        0
 40
1.125
309
GRIDFORMAT_END
 95
        4
302
GRIDFORMAT
  1
GRIDFORMAT_BEGIN
 90
        0
 91
        1
 62
     0
 92
       -2
340
14
 93
        0
 40
1.125
309
GRIDFORMAT_END
 95
        8
302
GRIDFORMAT
  1
GRIDFORMAT_BEGIN
 90
        0
 91
        1
 62
     0
 92
       -2
340
14
 93
        0
 40
1.125
309
GRIDFORMAT_END
 95
       16
302
GRIDFORMAT
  1
GRIDFORMAT_BEGIN
 90
        0
 91
        1
 62
     0
 92
       -2
340
14
 93
        0
 40
1.125
309
GRIDFORMAT_END
 95
       32
302
GRIDFORMAT
  1
GRIDFORMAT_BEGIN
 90
        0
 91
        1
 62
     0
 92
       -2
340
14
 93
        0
 40
1.125
309
GRIDFORMAT_END
309
TABLEFORMAT_END
  1
CELLSTYLE_BEGIN
 90
        3
 91
        2
300
_DATA
309
CELLSTYLE_END
  0
ENDSEC
  0
EOF
